0
SECTION
2
HEADER
9
$INSUNITS
70
1
9
$ACADVER
1
AC1014
9
$HANDSEED
5
FFFF
0
ENDSEC
0
SECTION
2
TABLES
0
TABLE
2
VPORT
5
8
100
AcDbSymbolTable
0
ENDTAB
0
TABLE
2
LTYPE
5
5
100
AcDbSymbolTable
0
LTYPE
5
14
100
AcDbSymbolTableRecord
100
AcDbLinetypeTableRecord
2
BYBLOCK
70
0
0
LTYPE
5
15
100
AcDbSymbolTableRecord
100
AcDbLinetypeTableRecord
2
BYLAYER
70
0
0
LTYPE
5
16
100
AcDbSymbolTableRecord
100
AcDbLinetypeTableRecord
2
DASHED
70
0
3
Dashed __ __ __ __ __ __ __ __ __ __ __ __ __ _
72
65
73
2
40
0.75
49
0.5
74
0
49
-0.25
74
0
0
ENDTAB
0
TABLE
2
LAYER
5
2
100
AcDbSymbolTable
70
2
0
LAYER
5
50
100
AcDbSymbolTableRecord
100
AcDbLayerTableRecord
2
0
70
0
62
7
6
CONTINUOUS
0
ENDTAB
0
TABLE
2
STYLE
5
3
100
AcDbSymbolTable
70
1
0
STYLE
5
11
100
AcDbSymbolTableRecord
100
AcDbTextStyleTableRecord
2
STANDARD
70
0
0
ENDTAB
0
TABLE
2
VIEW
5
6
100
AcDbSymbolTable
70
0
0
ENDTAB
0
TABLE
2
UCS
5
7
100
AcDbSymbolTable
70
0
0
ENDTAB
0
TABLE
2
APPID
5
9
100
AcDbSymbolTable
70
2
0
APPID
5
12
100
AcDbSymbolTableRecord
100
AcDbRegAppTableRecord
2
ACAD
70
0
0
ENDTAB
0
TABLE
2
DIMSTYLE
5
A
100
AcDbSymbolTable
70
1
0
ENDTAB
0
TABLE
2
BLOCK_RECORD
5
1
100
AcDbSymbolTable
70
1
0
BLOCK_RECORD
5
1F
100
AcDbSymbolTableRecord
100
AcDbBlockTableRecord
2
*MODEL_SPACE
0
BLOCK_RECORD
5
1B
100
AcDbSymbolTableRecord
100
AcDbBlockTableRecord
2
*PAPER_SPACE
0
ENDTAB
0
ENDSEC
0
SECTION
2
BLOCKS
0
BLOCK
5
20
100
AcDbEntity
100
AcDbBlockBegin
2
*MODEL_SPACE
0
ENDBLK
5
21
100
AcDbEntity
100
AcDbBlockEnd
0
BLOCK
5
1C
100
AcDbEntity
100
AcDbBlockBegin
2
*PAPER_SPACE
0
ENDBLK
5
1D
100
AcDbEntity
100
AcDbBlockEnd
0
ENDSEC
0
SECTION
2
ENTITIES
0
LINE
5
100
100
AcDbEntity
8
0
100
AcDbLine
10
1.9605220721684786
20
0.022157772869881989
30
0
11
1.9996893159616631
21
0.06162868235472363
31
0
0
LINE
5
101
100
AcDbEntity
8
0
100
AcDbLine
10
1.9996893159616631
20
0.06162868235472363
30
0
11
1.9823761501501433
21
3.4242166223208481
31
0
0
LINE
5
102
100
AcDbEntity
8
0
100
AcDbLine
10
1.9823761501501433
20
3.4242166223208481
30
0
11
1.9593314868752161
21
3.4470251981696274
31
0
0
LINE
5
103
100
AcDbEntity
8
0
100
AcDbLine
10
1.9593314868752161
20
3.4470251981696274
30
0
11
1.957994784849149
21
3.706641386284117
31
0
0
ELLIPSE
5
104
100
AcDbEntity
8
0
100
AcDbEllipse
10
1.9496295922503257
20
3.7354485367116119
30
0
11
0.019320463354951679
21
-0.022950374632017899
31
0.0
40
0.99941943360284247
41
5.8658479801573256
42
6.7009602094328722
0
LINE
5
105
100
AcDbEntity
8
0
100
AcDbLine
10
1.9765945770352278
20
3.7223063291495007
30
0
11
2.1800394912572796
21
4.1401884788515355
31
0
0
ELLIPSE
5
106
100
AcDbEntity
8
0
100
AcDbEllipse
10
2.1530745064723775
20
4.1533306864136472
30
0
11
0.01932046335495333
21
-0.022950374632016362
31
0.0
40
0.9994194336028428
41
0.41777490225316438
42
1.6176068175511928
0
ELLIPSE
5
107
100
AcDbEntity
8
0
100
AcDbEllipse
10
2.0652639774154751
20
3.8152938576386224
30
0
11
0.24150579193682573
21
-0.2868796829002826
31
0.0
40
0.99941943360284258
41
2.1442616884316346
42
2.3594536950972058
0
ELLIPSE
5
108
100
AcDbEntity
8
0
100
AcDbEllipse
10
2.1165121630468944
20
4.4380083856383639
30
0
11
0.1610038612912737
21
-0.19125312193347366
31
0.0
40
0.99941943360284269
41
4.7592814165891113
42
5.5010463486867014
0
ELLIPSE
5
109
100
AcDbEntity
8
0
100
AcDbEllipse
10
1.6580499695909041
20
4.013762021285662
30
0
11
0.24150579193688504
21
-0.2868796829002323
31
0.0
40
0.9994194336028428
41
1.6176887629994068
42
1.62845060813487
0
ELLIPSE
5
110
100
AcDbEntity
8
0
100
AcDbEllipse
10
2.1164734148040738
20
4.4379703330765912
30
0
11
0.16100386129129321
21
-0.19125312193345739
31
0.0
40
0.99941943360284247
41
4.1047829470911372
42
4.7431318108533622
0
ELLIPSE
5
111
100
AcDbEntity
8
0
100
AcDbEllipse
10
1.4943518992440663
20
4.3806626302180627
30
0
11
0.24150579193691868
21
-0.28687968290020405
31
0.0
40
0.99941943360284258
41
0.96319029350141827
42
1.1783823001669835
0
ELLIPSE
5
112
100
AcDbEntity
8
0
100
AcDbEllipse
10
1.8314833388288605
20
4.4717659676693193
30
0
11
-0.019320463354952352
21
0.022950374632017344
31
0.0
40
0.99941943360284269
41
4.8466298246369277
42
6.046461739935002
0
LINE
5
113
100
AcDbEntity
8
0
100
AcDbLine
10
1.8180808630276541
20
4.4986046744929942
30
0
11
1.1587614141401845
21
4.4969073462008344
31
0
0
ELLIPSE
5
114
100
AcDbEntity
8
0
100
AcDbEllipse
10
1.1454973002722459
20
4.4699999898671576
30
0
11
0.019202042813654566
21
0.023049545587333797
31
0.0
40
0.99941943360284269
41
0.23672356724460461
42
1.4365554825426781
0
ELLIPSE
5
115
100
AcDbEntity
8
0
100
AcDbEllipse
10
1.4830933345167641
20
4.3806336465736804
30
0
11
-0.24002553517069647
21
-0.28811931984165989
31
0.0
40
0.99941943360284258
41
5.1048030070126016
42
5.3199950136781711
0
ELLIPSE
5
116
100
AcDbEntity
8
0
100
AcDbEllipse
10
0.86068500511099733
20
4.4347374765298353
30
0
11
-0.16001702344714508
21
-0.19207954656109463
31
0.0
40
0.99941943360284269
41
1.5400534963262278
42
2.1784023600884534
0
ELLIPSE
5
117
100
AcDbEntity
8
0
100
AcDbEllipse
10
1.3212864928862187
20
4.012895069495082
30
0
11
-0.24002553517066263
21
-0.28811931984168793
31
0.0
40
0.99941943360284291
41
4.6547346990447158
42
4.6654965441801792
0
ELLIPSE
5
118
100
AcDbEntity
8
0
100
AcDbEllipse
10
0.8606460614607736
20
4.4347753290843919
30
0
11
-0.16001702344712546
21
-0.19207954656111076
31
0.0
40
0.9994194336028428
41
0.78213895849288773
42
1.5239038905904754
0
ELLIPSE
5
119
100
AcDbEntity
8
0
100
AcDbEllipse
10
0.9150997343678875
20
3.8123329161501682
30
0
11
-0.24002553517060304
21
-0.28811931984173789
31
0.0
40
0.9994194336028428
41
3.9237316120823791
42
4.1389236187479534
0
ELLIPSE
5
120
100
AcDbEntity
8
0
100
AcDbEllipse
10
0.82554992101533764
20
4.1499131548343255
30
0
11
-0.019202042813655548
21
-0.023049545587332822
31
0.0
40
0.99941943360284269
41
4.6655784896283938
42
5.8654104049263616
0
LINE
5
121
100
AcDbEntity
8
0
100
AcDbLine
10
0.79865295884601573
20
4.1366322870118646
30
0
11
1.004246723799056
21
3.7198031517839558
31
0
0
ELLIPSE
5
122
100
AcDbEntity
8
0
100
AcDbEllipse
10
1.0311436859683782
20
3.7330840196064163
30
0
11
-0.019202042813653886
21
-0.023049545587334349
31
0.0
40
0.99941943360284247
41
5.8654104049263172
42
6.7005226342018664
0
LINE
5
123
100
AcDbEntity
8
0
100
AcDbLine
10
1.0229269234493461
20
3.7042341811896491
30
0
11
1.0229269234493459
21
3.4446145519175069
31
0
0
LINE
5
124
100
AcDbEntity
8
0
100
AcDbLine
10
1.0229269234493459
20
3.4446145519175069
30
0
11
1.0000000000000004
21
3.4216876284681614
31
0
0
LINE
5
125
100
AcDbEntity
8
0
100
AcDbLine
10
1.0000000000000004
20
3.4216876284681614
30
0
11
1.0000000000000004
21
0.059055118110236358
31
0
0
LINE
5
126
100
AcDbEntity
8
0
100
AcDbLine
10
1.0000000000000004
20
0.059055118110236358
30
0
11
1.0393699482811547
21
0.019786391949911546
31
0
0
LINE
5
127
100
AcDbEntity
8
0
100
AcDbLine
10
1.0393699482811547
20
0.019786391949911546
30
0
11
1.9605220721684786
21
0.022157772869881989
31
0
0
ENDSEC
0
SECTION
2
OBJECTS
0
DICTIONARY
5
C
100
AcDbDictionary
3
ACAD_GROUP
350
D
3
ACAD_MLINESTYLE
350
17
0
DICTIONARY
5
D
100
AcDbDictionary
0
DICTIONARY
5
1A
330
C
100
AcDbDictionary
0
DICTIONARY
5
17
100
AcDbDictionary
0
ENDSEC
0
EOF
