0
SECTION
2
HEADER
9
$INSUNITS
70
1
9
$ACADVER
1
AC1014
9
$HANDSEED
5
FFFF
0
ENDSEC
0
SECTION
2
TABLES
0
TABLE
2
VPORT
5
8
100
AcDbSymbolTable
0
ENDTAB
0
TABLE
2
LTYPE
5
5
100
AcDbSymbolTable
0
LTYPE
5
14
100
AcDbSymbolTableRecord
100
AcDbLinetypeTableRecord
2
BYBLOCK
70
0
0
LTYPE
5
15
100
AcDbSymbolTableRecord
100
AcDbLinetypeTableRecord
2
BYLAYER
70
0
0
LTYPE
5
16
100
AcDbSymbolTableRecord
100
AcDbLinetypeTableRecord
2
DASHED
70
0
3
Dashed __ __ __ __ __ __ __ __ __ __ __ __ __ _
72
65
73
2
40
0.75
49
0.5
74
0
49
-0.25
74
0
0
ENDTAB
0
TABLE
2
LAYER
5
2
100
AcDbSymbolTable
70
2
0
LAYER
5
50
100
AcDbSymbolTableRecord
100
AcDbLayerTableRecord
2
0
70
0
62
7
6
CONTINUOUS
0
ENDTAB
0
TABLE
2
STYLE
5
3
100
AcDbSymbolTable
70
1
0
STYLE
5
11
100
AcDbSymbolTableRecord
100
AcDbTextStyleTableRecord
2
STANDARD
70
0
0
ENDTAB
0
TABLE
2
VIEW
5
6
100
AcDbSymbolTable
70
0
0
ENDTAB
0
TABLE
2
UCS
5
7
100
AcDbSymbolTable
70
0
0
ENDTAB
0
TABLE
2
APPID
5
9
100
AcDbSymbolTable
70
2
0
APPID
5
12
100
AcDbSymbolTableRecord
100
AcDbRegAppTableRecord
2
ACAD
70
0
0
ENDTAB
0
TABLE
2
DIMSTYLE
5
A
100
AcDbSymbolTable
70
1
0
ENDTAB
0
TABLE
2
BLOCK_RECORD
5
1
100
AcDbSymbolTable
70
1
0
BLOCK_RECORD
5
1F
100
AcDbSymbolTableRecord
100
AcDbBlockTableRecord
2
*MODEL_SPACE
0
BLOCK_RECORD
5
1B
100
AcDbSymbolTableRecord
100
AcDbBlockTableRecord
2
*PAPER_SPACE
0
ENDTAB
0
ENDSEC
0
SECTION
2
BLOCKS
0
BLOCK
5
20
100
AcDbEntity
100
AcDbBlockBegin
2
*MODEL_SPACE
0
ENDBLK
5
21
100
AcDbEntity
100
AcDbBlockEnd
0
BLOCK
5
1C
100
AcDbEntity
100
AcDbBlockBegin
2
*PAPER_SPACE
0
ENDBLK
5
1D
100
AcDbEntity
100
AcDbBlockEnd
0
ENDSEC
0
SECTION
2
ENTITIES
0
LINE
5
100
100
AcDbEntity
8
0
100
AcDbLine
10
0.62499999999999978
20
-0.039370078740157334
30
0
11
-0.62499999999999978
21
-0.039370078740157334
31
0
0
LINE
5
101
100
AcDbEntity
8
0
100
AcDbLine
10
1.6336341674044808
20
-3.2648744071161793
30
0
11
-1.6336341674044808
21
-3.2648744071161793
31
0
0
ELLIPSE
5
102
100
AcDbEntity
8
0
100
AcDbEllipse
10
-1.3753655947922097
20
-4.1131940623679784
30
0
11
-0.16007187608116658
21
0.19203383683053279
31
0.0
40
0.99941943360284247
41
2.0144605814665049
42
2.2298136740906469
0
ELLIPSE
5
103
100
AcDbEntity
8
0
100
AcDbEllipse
10
-1.8985166386633139
20
-5.2478012354107575
30
0
11
-0.64028750432467074
21
0.76813534732212452
31
0.0
40
0.99941943360284269
41
5.1560532354361346
42
5.5312990245401084
0
ELLIPSE
5
104
100
AcDbEntity
8
0
100
AcDbEllipse
10
-1.8276687515701096
20
-4.0001496647876351
30
0
11
-0.16007187608113815
21
0.19203383683055636
31
0.0
40
0.9994194336028428
41
2.1743532786290269
42
2.3897063709446527
0
ELLIPSE
5
105
100
AcDbEntity
8
0
100
AcDbEllipse
10
-1.869957605900278
20
-4.2241141800418536
30
0
11
0.019208625129745596
21
-0.023044060419659267
31
0.0
40
0.99941943360284269
41
3.7728798031543986
42
4.6100641061622234
0
LINE
5
106
100
AcDbEntity
8
0
100
AcDbLine
10
-1.899056471641531
20
-4.2168414831820202
30
0
11
-1.7563686086897525
21
-3.6445855557512323
31
0
0
ELLIPSE
5
107
100
AcDbEntity
8
0
100
AcDbEllipse
10
-1.7272697429484996
20
-3.6518582526110657
30
0
11
-0.019208625129742987
21
0.023044060419661453
31
0.0
40
0.99941943360284247
41
5.34367612994944
42
6.9144724567443268
0
LINE
5
108
100
AcDbEntity
8
0
100
AcDbLine
10
-1.7200144278831548
20
-3.6227604935891611
30
0
11
-1.2932310636781097
21
-3.7294267142000472
31
0
0
ELLIPSE
5
109
100
AcDbEntity
8
0
100
AcDbEllipse
10
-1.300486378743454
20
-3.7585244732219518
30
0
11
-0.019208625129745596
21
0.023044060419659267
31
0.0
40
0.99941943360284247
41
3.7728798031544186
42
5.3436761299493352
0
LINE
5
110
100
AcDbEntity
8
0
100
AcDbLine
10
-1.271387513002201
20
-3.7657971700817852
30
0
11
-1.4140753759539799
21
-4.3380530975125735
31
0
0
ELLIPSE
5
111
100
AcDbEntity
8
0
100
AcDbEllipse
10
-1.4431742416952329
20
-4.3307804006527393
30
0
11
0.019208625129737925
21
-0.023044060419665644
31
0.0
40
0.99941943360284247
41
6.0772881537367471
42
6.9144724567445328
0
ELLIPSE
5
112
100
AcDbEntity
8
0
100
AcDbEllipse
10
-1.5815943347891943
20
-3.9767704471209524
30
0
11
-0.09604312564869337
21
0.11522030209832512
31
0.0
40
0.9994194336028428
41
0
42
6.2831853071795862
0
ELLIPSE
5
113
100
AcDbEntity
8
0
100
AcDbEllipse
10
-1.0085020394237472
20
-4.3711257806109147
30
0
11
-0.16007187608118548
21
0.19203383683051706
31
0.0
40
0.99941943360284269
41
1.6537593190761954
42
1.8691124117003413
0
ELLIPSE
5
114
100
AcDbEntity
8
0
100
AcDbEllipse
10
-1.898489174601643
20
-5.2478364575174545
30
0
11
-0.64028750432470127
21
0.76813534732209898
31
0.0
40
0.99941943360284269
41
4.795351973045884
42
5.1705977621498587
0
ELLIPSE
5
115
100
AcDbEntity
8
0
100
AcDbEllipse
10
-1.3918978305272882
20
-4.1057303520811326
30
0
11
-0.16007187608115886
21
0.19203383683053921
31
0.0
40
0.99941943360284247
41
1.8136520162387071
42
2.0290051085543332
0
ELLIPSE
5
116
100
AcDbEntity
8
0
100
AcDbEllipse
10
-1.5105095503775594
20
-4.300310910424737
30
0
11
-0.01920862512974256
21
0.023044060419661797
31
0.0
40
0.99941943360284269
41
0.27058588717455578
42
1.1077701901823276
0
LINE
5
117
100
AcDbEntity
8
0
100
AcDbLine
10
-1.5351752695614778
20
-4.2832367294746305
30
0
11
-1.1996952067851985
21
-3.7982852634912709
31
0
0
ELLIPSE
5
118
100
AcDbEntity
8
0
100
AcDbEllipse
10
-1.1750294876012801
20
-3.8153594444413779
30
0
11
-0.019208625129739764
21
0.023044060419664135
31
0.0
40
0.9994194336028428
41
4.9829748675593599
42
6.5537711943542769
0
LINE
5
119
100
AcDbEntity
8
0
100
AcDbLine
10
-1.1579711793245202
20
-3.7907008953235803
30
0
11
-0.79620729796038503
21
-4.0411222159251485
31
0
0
ELLIPSE
5
120
100
AcDbEntity
8
0
100
AcDbEllipse
10
-0.81326560623714472
20
-4.0657807650429465
30
0
11
0.019208625129738484
21
-0.023044060419665176
31
0.0
40
0.9994194336028428
41
0.27058588717475279
42
1.8413822139696419
0
LINE
5
121
100
AcDbEntity
8
0
100
AcDbLine
10
-0.78859988705322626
20
-4.0828549459930539
30
0
11
-1.124079949829506
21
-4.5678064119764121
31
0
0
ELLIPSE
5
122
100
AcDbEntity
8
0
100
AcDbEllipse
10
-1.1487456690134239
20
-4.5507322310263056
30
0
11
0.019208625129741978
21
-0.023044060419662254
31
0.0
40
0.99941943360284269
41
5.7165868913463571
42
6.5537711943541499
0
ELLIPSE
5
123
100
AcDbEntity
8
0
100
AcDbEllipse
10
-1.1533584241689736
20
-4.1707165631749445
30
0
11
-0.096043125648698505
21
0.1152203020983209
31
0.0
40
0.99941943360284269
41
0
42
6.2831853071795862
0
ELLIPSE
5
124
100
AcDbEntity
8
0
100
AcDbEllipse
10
-0.7562661466540076
20
-4.7419161200769091
30
0
11
-0.16007187608116882
21
0.19203383683053085
31
0.0
40
0.99941943360284302
41
1.2930580566860679
42
1.508411149310211
0
ELLIPSE
5
125
100
AcDbEntity
8
0
100
AcDbEllipse
10
-1.8985472401433543
20
-5.2478968597968594
30
0
11
-0.64028750432472592
21
0.76813534732207833
31
0.0
40
0.99941943360284302
41
4.4346507106556405
42
4.8098964997596152
0
ELLIPSE
5
126
100
AcDbEntity
8
0
100
AcDbEllipse
10
-1.0214111940065418
20
-4.3583262874403204
30
0
11
-0.16007187608116194
21
0.19203383683053663
31
0.0
40
0.9994194336028428
41
1.4529507538484805
42
1.6683038461641067
0
ELLIPSE
5
127
100
AcDbEntity
8
0
100
AcDbEllipse
10
-1.2010803459196324
20
-4.498480198579089
30
0
11
-0.019208625129739896
21
0.02304406041966402
31
0.0
40
0.99941943360284236
41
6.1930699319640512
42
7.0302542349718298
0
LINE
5
128
100
AcDbEntity
8
0
100
AcDbLine
10
-1.2181384186287252
20
-4.4738019957579604
30
0
11
-0.73304273740642267
21
-4.1385686746533636
31
0
0
ELLIPSE
5
129
100
AcDbEntity
8
0
100
AcDbEllipse
10
-0.71598466469732991
20
-4.1632468774744922
30
0
11
-0.019208625129742151
21
0.023044060419662133
31
0.0
40
0.99941943360284269
41
4.6222736051690712
42
6.1930699319639269
0
LINE
5
130
100
AcDbEntity
8
0
100
AcDbLine
10
-0.69131878260128077
20
-4.1462011153844278
30
0
11
-0.44113371620125413
21
-4.5081480900943172
31
0
0
ELLIPSE
5
131
100
AcDbEntity
8
0
100
AcDbEllipse
10
-0.46579959829730327
20
-4.5251938521843815
30
0
11
0.019208625129739889
21
-0.023044060419664007
31
0.0
40
0.99941943360284247
41
6.1930699319640405
42
7.7638662587589069
0
LINE
5
132
100
AcDbEntity
8
0
100
AcDbLine
10
-0.44874152558821034
20
-4.549872055005511
30
0
11
-0.93383720681051352
21
-4.8851053761101069
31
0
0
ELLIPSE
5
133
100
AcDbEntity
8
0
100
AcDbEllipse
10
-0.95089527951960628
20
-4.8604271732889783
30
0
11
0.019208625129742411
21
-0.023044060419661908
31
0.0
40
0.99941943360284236
41
5.3558856289561341
42
6.19306993196391
0
ELLIPSE
5
134
100
AcDbEntity
8
0
100
AcDbEllipse
10
-0.82110703106044536
20
-4.5033141443367048
30
0
11
-0.096043125648705874
21
0.11522030209831474
31
0.0
40
0.99941943360284236
41
0
42
6.2831853071795862
0
ELLIPSE
5
135
100
AcDbEntity
8
0
100
AcDbEllipse
10
-0.65118471906877817
20
-5.1778380331391931
30
0
11
-0.16007187608117004
21
0.19203383683053005
31
0.0
40
0.99941943360284236
41
0.93209729166162458
42
1.1474503842857677
0
ELLIPSE
5
136
100
AcDbEntity
8
0
100
AcDbEllipse
10
-1.8987655219738904
20
-5.2476448736676264
30
0
11
-0.64028750432479786
21
0.76813534732201871
31
0.0
40
0.99941943360284247
41
4.0736899456311075
42
4.4489357347350804
0
ELLIPSE
5
137
100
AcDbEntity
8
0
100
AcDbEllipse
10
-0.7638372421711922
20
-4.7253929629374927
30
0
11
-0.16007187608119861
21
0.19203383683050615
31
0.0
40
0.9994194336028428
41
1.0919899888238505
42
1.3073430811394777
0
ELLIPSE
5
138
100
AcDbEntity
8
0
100
AcDbEllipse
10
-0.98145783573096512
20
-4.7930258075247218
30
0
11
-0.019208625129743282
21
0.02304406041966121
31
0.0
40
0.99941943360284247
41
5.8321091669394534
42
6.6692934699472026
0
LINE
5
139
100
AcDbEntity
8
0
100
AcDbLine
10
-0.98870532139638179
20
-4.7639178118014991
30
0
11
-0.41638925859995352
21
-4.6216960104561018
31
0
0
ELLIPSE
5
140
100
AcDbEntity
8
0
100
AcDbEllipse
10
-0.40914177293453657
20
-4.6508040061793228
30
0
11
-0.019208625129745218
21
0.023044060419659607
31
0.0
40
0.99941943360284269
41
4.2613128401444804
42
5.8321091669393965
0
LINE
5
141
100
AcDbEntity
8
0
100
AcDbLine
10
-0.38004095618217598
20
-4.6435723891617604
30
0
11
-0.27374449975606435
21
-5.0704896597690245
31
0
0
ELLIPSE
5
142
100
AcDbEntity
8
0
100
AcDbEllipse
10
-0.30284531650842483
20
-5.0777212767865869
30
0
11
0.019208625129741662
21
-0.023044060419662542
31
0.0
40
0.99941943360284269
41
5.8321091669395102
42
7.4029054937344068
0
LINE
5
143
100
AcDbEntity
8
0
100
AcDbLine
10
-0.29559783084300822
20
-5.1068292725098097
30
0
11
-0.86791389363943716
21
-5.2490510738552061
31
0
0
ELLIPSE
5
144
100
AcDbEntity
8
0
100
AcDbEllipse
10
-0.87516137930485449
20
-5.2199430781319842
30
0
11
0.019208625129734824
21
-0.023044060419668232
31
0.0
40
0.99941943360284269
41
4.9949248639319919
42
5.8321091669398024
0
ELLIPSE
5
145
100
AcDbEntity
8
0
100
AcDbEllipse
10
-0.6276011677435176
20
-4.9317577336468714
30
0
11
-0.096043125648724373
21
0.1152203020982993
31
0.0
40
0.9994194336028428
41
0
42
6.2831853071795862
0
LINE
5
146
100
AcDbEntity
8
0
100
AcDbLine
10
-1.6336341674044808
20
-3.2648744071161793
30
0
11
-1.7200144278831548
21
-3.6227604935891611
31
0
0
LWPOLYLINE
5
147
100
AcDbEntity
8
0
100
AcDbPolyline
90
4
70
1
43
0.0
10
0.62499999999999978
20
-3.2648744071161793
10
-0.62499999999999978
20
-3.2648744071161793
10
-0.62499999999999978
20
-0.039370078740157334
10
0.62499999999999978
20
-0.039370078740157334
0
ELLIPSE
5
148
100
AcDbEntity
8
0
100
AcDbEllipse
10
0.87516137930485449
20
-5.2199430781319842
30
0
11
-0.019208625129734824
21
-0.023044060419668232
31
0.0
40
0.99941943360284269
41
0.45107614023978354
42
1.2882604432475944
6
DASHED
0
ELLIPSE
5
149
100
AcDbEntity
8
0
100
AcDbEllipse
10
0.65118471906877817
20
-5.1778380331391931
30
0
11
0.16007187608117004
21
0.19203383683053005
31
0.0
40
0.99941943360284236
41
5.1357349228938176
42
5.3510880155179592
6
DASHED
0
ELLIPSE
5
150
100
AcDbEntity
8
0
100
AcDbEllipse
10
1.8987655219738904
20
-5.2476448736676264
30
0
11
0.64028750432479786
21
0.76813534732201871
31
0.0
40
0.99941943360284247
41
1.8342495724445054
42
2.2094953615484791
6
DASHED
0
ELLIPSE
5
151
100
AcDbEntity
8
0
100
AcDbEllipse
10
1.8985472401433543
20
-5.2478968597968594
30
0
11
0.64028750432472581
21
0.76813534732207822
31
0.0
40
0.99941943360284302
41
1.4732888074199717
42
1.8485345965239461
6
DASHED
0
ELLIPSE
5
152
100
AcDbEntity
8
0
100
AcDbEllipse
10
1.898489174601643
20
-5.2478364575174545
30
0
11
0.64028750432470127
21
0.76813534732209898
31
0.0
40
0.99941943360284269
41
1.112587545029728
42
1.4878333341337027
6
DASHED
0
ELLIPSE
5
153
100
AcDbEntity
8
0
100
AcDbEllipse
10
1.8985166386633139
20
-5.2478012354107575
30
0
11
0.64028750432467074
21
0.76813534732212452
31
0.0
40
0.99941943360284269
41
0.75188628263947721
42
1.1271320717434514
6
DASHED
0
ELLIPSE
5
154
100
AcDbEntity
8
0
100
AcDbEllipse
10
1.8276687515701096
20
-4.0001496647876351
30
0
11
0.16007187608113818
21
0.19203383683055639
31
0.0
40
0.9994194336028428
41
3.893478936234934
42
4.108832028550558
6
DASHED
0
ELLIPSE
5
155
100
AcDbEntity
8
0
100
AcDbEllipse
10
1.869957605900278
20
-4.2241141800418536
30
0
11
-0.019208625129745596
21
-0.023044060419659274
31
0.0
40
0.99941943360284269
41
1.6731212010173624
42
2.5103055040251792
6
DASHED
0
LINE
5
156
100
AcDbEntity
8
0
100
AcDbLine
10
1.899056471641531
20
-4.2168414831820202
30
0
11
1.7563686086897525
21
-3.6445855557512323
31
0
6
DASHED
0
ELLIPSE
5
157
100
AcDbEntity
8
0
100
AcDbEllipse
10
1.7272697429484996
20
-3.6518582526110657
30
0
11
0.019208625129742987
21
0.023044060419661453
31
0.0
40
0.99941943360284247
41
5.6518981576148573
42
7.2226944844097325
6
DASHED
0
LINE
5
158
100
AcDbEntity
8
0
100
AcDbLine
10
1.7200144278831548
20
-3.6227604935891611
30
0
11
1.6336341674044808
21
-3.2648744071161793
31
0
6
DASHED
0
LINE
5
159
100
AcDbEntity
8
0
100
AcDbLine
10
0.75805893511754363
20
-5.2217518748577723
30
0
11
0.85970876798511242
21
-5.2470120820695811
31
0
6
DASHED
0
LINE
5
160
100
AcDbEntity
8
0
100
AcDbLine
10
0.75805893511754363
20
-5.2217518748577723
30
0
11
-0.75805893511754363
21
-5.2217518748577723
31
0
6
DASHED
0
ENDSEC
0
SECTION
2
OBJECTS
0
DICTIONARY
5
C
100
AcDbDictionary
3
ACAD_GROUP
350
D
3
ACAD_MLINESTYLE
350
17
0
DICTIONARY
5
D
100
AcDbDictionary
0
DICTIONARY
5
1A
330
C
100
AcDbDictionary
0
DICTIONARY
5
17
100
AcDbDictionary
0
ENDSEC
0
EOF
