0
SECTION
2
HEADER
9
$INSUNITS
70
1
9
$ACADVER
1
AC1014
9
$HANDSEED
5
FFFF
0
ENDSEC
0
SECTION
2
TABLES
0
TABLE
2
VPORT
5
8
100
AcDbSymbolTable
0
ENDTAB
0
TABLE
2
LTYPE
5
5
100
AcDbSymbolTable
0
LTYPE
5
14
100
AcDbSymbolTableRecord
100
AcDbLinetypeTableRecord
2
BYBLOCK
70
0
0
LTYPE
5
15
100
AcDbSymbolTableRecord
100
AcDbLinetypeTableRecord
2
BYLAYER
70
0
0
LTYPE
5
16
100
AcDbSymbolTableRecord
100
AcDbLinetypeTableRecord
2
DASHED
70
0
3
Dashed __ __ __ __ __ __ __ __ __ __ __ __ __ _
72
65
73
2
40
0.75
49
0.5
74
0
49
-0.25
74
0
0
ENDTAB
0
TABLE
2
LAYER
5
2
100
AcDbSymbolTable
70
2
0
LAYER
5
50
100
AcDbSymbolTableRecord
100
AcDbLayerTableRecord
2
0
70
0
62
7
6
CONTINUOUS
0
ENDTAB
0
TABLE
2
STYLE
5
3
100
AcDbSymbolTable
70
1
0
STYLE
5
11
100
AcDbSymbolTableRecord
100
AcDbTextStyleTableRecord
2
STANDARD
70
0
0
ENDTAB
0
TABLE
2
VIEW
5
6
100
AcDbSymbolTable
70
0
0
ENDTAB
0
TABLE
2
UCS
5
7
100
AcDbSymbolTable
70
0
0
ENDTAB
0
TABLE
2
APPID
5
9
100
AcDbSymbolTable
70
2
0
APPID
5
12
100
AcDbSymbolTableRecord
100
AcDbRegAppTableRecord
2
ACAD
70
0
0
ENDTAB
0
TABLE
2
DIMSTYLE
5
A
100
AcDbSymbolTable
70
1
0
ENDTAB
0
TABLE
2
BLOCK_RECORD
5
1
100
AcDbSymbolTable
70
1
0
BLOCK_RECORD
5
1F
100
AcDbSymbolTableRecord
100
AcDbBlockTableRecord
2
*MODEL_SPACE
0
BLOCK_RECORD
5
1B
100
AcDbSymbolTableRecord
100
AcDbBlockTableRecord
2
*PAPER_SPACE
0
ENDTAB
0
ENDSEC
0
SECTION
2
BLOCKS
0
BLOCK
5
20
100
AcDbEntity
100
AcDbBlockBegin
2
*MODEL_SPACE
0
ENDBLK
5
21
100
AcDbEntity
100
AcDbBlockEnd
0
BLOCK
5
1C
100
AcDbEntity
100
AcDbBlockBegin
2
*PAPER_SPACE
0
ENDBLK
5
1D
100
AcDbEntity
100
AcDbBlockEnd
0
ENDSEC
0
SECTION
2
ENTITIES
0
ELLIPSE
5
100
100
AcDbEntity
8
0
100
AcDbEllipse
10
1.6203127792289334
20
4.4078949773084348
30
0
11
-0.20034131335582281
21
-0.24048359229449273
31
0.0
40
0.99941943360284247
41
5.1281178566146632
42
5.3199950136782324
0
ELLIPSE
5
101
100
AcDbEntity
8
0
100
AcDbEllipse
10
0.99790444982316606
20
4.4619988072645898
30
0
11
-0.19970124526202793
21
-0.2397152741082535
31
0.0
40
0.99941943360284258
41
1.5386589159201489
42
2.1784023600884144
0
ELLIPSE
5
102
100
AcDbEntity
8
0
100
AcDbEllipse
10
1.4584962795731318
20
4.0401657876633665
30
0
11
-0.20034131335579364
21
-0.24048359229451707
31
0.0
40
0.99941943360284302
41
4.6507950906529416
42
4.6654965441802361
0
ELLIPSE
5
103
100
AcDbEntity
8
0
100
AcDbEllipse
10
0.99785584814768702
20
4.4620460472526764
30
0
11
-0.19970124526201041
21
-0.23971527410826804
31
0.0
40
0.99941943360284313
41
0.78213895849287951
42
1.5239038905904647
0
ELLIPSE
5
104
100
AcDbEntity
8
0
100
AcDbEllipse
10
1.0523095210548004
20
3.8396036343184532
30
0
11
-0.2003413133557598
21
-0.24048359229454616
31
0.0
40
0.99941943360284236
41
3.9237316120824959
42
4.1156087691460677
0
ELLIPSE
5
105
100
AcDbEntity
8
0
100
AcDbEllipse
10
0.98990692741863107
20
4.1221444990176774
30
0
11
-0.019202042813655232
21
-0.023049545587333107
31
0.0
40
0.99941943360284191
41
4.7536995366197194
42
5.8654104049263553
0
LINE
5
106
100
AcDbEntity
8
0
100
AcDbLine
10
0.96300996524930926
20
4.1088636311952174
30
0
11
1.1686037302023498
21
3.6920344959673077
31
0
0
ELLIPSE
5
107
100
AcDbEntity
8
0
100
AcDbEllipse
10
1.1955006923716718
20
3.7053153637897682
30
0
11
-0.019202042813654806
21
-0.023049545587333603
31
0.0
40
0.99941943360284269
41
5.8654104049263358
42
7.2015469523329827
0
LINE
5
108
100
AcDbEntity
8
0
100
AcDbLine
10
1.2021474141150261
20
3.676072220075107
30
0
11
1.2409780032518913
21
3.5974309067973427
31
0
0
LINE
5
109
100
AcDbEntity
8
0
100
AcDbLine
10
1.2409780032518913
20
3.5974309067973427
30
0
11
1.2409780032518913
21
3.2896584407364551
31
0
0
LINE
5
110
100
AcDbEntity
8
0
100
AcDbLine
10
1.2409780032518913
20
3.2896584407364551
30
0
11
1.2000000000000004
21
3.2486804374845639
31
0
0
LINE
5
111
100
AcDbEntity
8
0
100
AcDbLine
10
1.2000000000000004
20
3.2486804374845639
30
0
11
1.2000000000000004
21
0.019685039370079017
31
0
0
LINE
5
112
100
AcDbEntity
8
0
100
AcDbLine
10
1.2000000000000004
20
0.019685039370079017
30
0
11
1.2196850393700793
21
0
31
0
0
LINE
5
113
100
AcDbEntity
8
0
100
AcDbLine
10
1.2196850393700793
20
0
30
0
11
2.1803149606299215
21
0
31
0
0
LINE
5
114
100
AcDbEntity
8
0
100
AcDbLine
10
2.1803149606299215
20
0
30
0
11
2.2000000000000002
21
0.01968503937007874
31
0
0
LINE
5
115
100
AcDbEntity
8
0
100
AcDbLine
10
2.2000000000000002
20
0.01968503937007874
30
0
11
2.2000000000000002
21
3.2486804374845639
31
0
0
LINE
5
116
100
AcDbEntity
8
0
100
AcDbLine
10
2.2000000000000002
20
3.2486804374845639
30
0
11
2.1590219967481095
21
3.2896584407364551
31
0
0
LINE
5
117
100
AcDbEntity
8
0
100
AcDbLine
10
2.1590219967481095
20
3.2896584407364551
30
0
11
2.1590219967481095
21
3.5974309067973427
31
0
0
LINE
5
118
100
AcDbEntity
8
0
100
AcDbLine
10
2.1590219967481095
20
3.5974309067973427
30
0
11
2.1978525858849749
21
3.676072220075107
31
0
0
ELLIPSE
5
119
100
AcDbEntity
8
0
100
AcDbEllipse
10
2.2044993076283292
20
3.7053153637897682
30
0
11
0.019202042813654806
21
-0.023049545587333603
31
0.0
40
0.99941943360284269
41
5.3648236620262022
42
6.7009602094328171
0
LINE
5
120
100
AcDbEntity
8
0
100
AcDbLine
10
2.2313962697976506
20
3.6920344959673077
30
0
11
2.4369900347506919
21
4.1088636311952165
31
0
0
ELLIPSE
5
121
100
AcDbEntity
8
0
100
AcDbEllipse
10
2.4100930725813701
20
4.1221444990176774
30
0
11
0.019202042813655232
21
-0.023049545587333107
31
0.0
40
0.99941943360284191
41
0.41777490225319325
42
1.5294857705598519
0
ELLIPSE
5
122
100
AcDbEntity
8
0
100
AcDbEllipse
10
2.3476904789452004
20
3.8396036343184532
30
0
11
0.2003413133557598
21
-0.24048359229454616
31
0.0
40
0.99941943360284236
41
2.167576538033515
42
2.3594536950970904
0
ELLIPSE
5
123
100
AcDbEntity
8
0
100
AcDbEllipse
10
2.4021441518523137
20
4.4620460472526764
30
0
11
0.19970124526201041
21
-0.23971527410826804
31
0.0
40
0.99941943360284302
41
4.7592814165891273
42
5.5010463486867032
0
ELLIPSE
5
124
100
AcDbEntity
8
0
100
AcDbEllipse
10
1.9415037204268688
20
4.0401657876633665
30
0
11
0.20034131335579364
21
-0.24048359229451707
31
0.0
40
0.99941943360284302
41
1.6176887629993455
42
1.6323902165266382
0
ELLIPSE
5
125
100
AcDbEntity
8
0
100
AcDbEllipse
10
2.4020955501768348
20
4.4619988072645898
30
0
11
0.19970124526202793
21
-0.2397152741082535
31
0.0
40
0.99941943360284258
41
4.1047829470911745
42
4.7445263912594422
0
ELLIPSE
5
126
100
AcDbEntity
8
0
100
AcDbEllipse
10
1.7796872207710674
20
4.4078949773084348
30
0
11
0.20034131335582281
21
-0.24048359229449273
31
0.0
40
0.99941943360284247
41
0.96319029350135343
42
1.1550674505649225
0
ELLIPSE
5
127
100
AcDbEntity
8
0
100
AcDbEllipse
10
2.0622341391090395
20
4.4701427039550383
30
0
11
-0.019202042813655232
21
0.023049545587333239
31
0.0
40
0.99941943360284269
41
4.9347508716283084
42
6.0464617399348883
0
LINE
5
128
100
AcDbEntity
8
0
100
AcDbLine
10
2.0489700252411014
20
4.497050060288716
30
0
11
1.3510299747588992
21
4.497050060288716
31
0
0
ELLIPSE
5
129
100
AcDbEntity
8
0
100
AcDbEllipse
10
1.3377658608909611
20
4.4701427039550383
30
0
11
0.019202042813655232
21
0.023049545587333239
31
0.0
40
0.9994194336028428
41
0.23672356724466009
42
1.3484344355512625
0
ENDSEC
0
SECTION
2
OBJECTS
0
DICTIONARY
5
C
100
AcDbDictionary
3
ACAD_GROUP
350
D
3
ACAD_MLINESTYLE
350
17
0
DICTIONARY
5
D
100
AcDbDictionary
0
DICTIONARY
5
1A
330
C
100
AcDbDictionary
0
DICTIONARY
5
17
100
AcDbDictionary
0
ENDSEC
0
EOF
