0
SECTION
2
HEADER
9
$INSUNITS
70
1
9
$ACADVER
1
AC1014
9
$HANDSEED
5
FFFF
0
ENDSEC
0
SECTION
2
TABLES
0
TABLE
2
VPORT
5
8
100
AcDbSymbolTable
0
ENDTAB
0
TABLE
2
LTYPE
5
5
100
AcDbSymbolTable
0
LTYPE
5
14
100
AcDbSymbolTableRecord
100
AcDbLinetypeTableRecord
2
BYBLOCK
70
0
0
LTYPE
5
15
100
AcDbSymbolTableRecord
100
AcDbLinetypeTableRecord
2
BYLAYER
70
0
0
LTYPE
5
16
100
AcDbSymbolTableRecord
100
AcDbLinetypeTableRecord
2
DASHED
70
0
3
Dashed __ __ __ __ __ __ __ __ __ __ __ __ __ _
72
65
73
2
40
0.75
49
0.5
74
0
49
-0.25
74
0
0
ENDTAB
0
TABLE
2
LAYER
5
2
100
AcDbSymbolTable
70
2
0
LAYER
5
50
100
AcDbSymbolTableRecord
100
AcDbLayerTableRecord
2
0
70
0
62
7
6
CONTINUOUS
0
ENDTAB
0
TABLE
2
STYLE
5
3
100
AcDbSymbolTable
70
1
0
STYLE
5
11
100
AcDbSymbolTableRecord
100
AcDbTextStyleTableRecord
2
STANDARD
70
0
0
ENDTAB
0
TABLE
2
VIEW
5
6
100
AcDbSymbolTable
70
0
0
ENDTAB
0
TABLE
2
UCS
5
7
100
AcDbSymbolTable
70
0
0
ENDTAB
0
TABLE
2
APPID
5
9
100
AcDbSymbolTable
70
2
0
APPID
5
12
100
AcDbSymbolTableRecord
100
AcDbRegAppTableRecord
2
ACAD
70
0
0
ENDTAB
0
TABLE
2
DIMSTYLE
5
A
100
AcDbSymbolTable
70
1
0
ENDTAB
0
TABLE
2
BLOCK_RECORD
5
1
100
AcDbSymbolTable
70
1
0
BLOCK_RECORD
5
1F
100
AcDbSymbolTableRecord
100
AcDbBlockTableRecord
2
*MODEL_SPACE
0
BLOCK_RECORD
5
1B
100
AcDbSymbolTableRecord
100
AcDbBlockTableRecord
2
*PAPER_SPACE
0
ENDTAB
0
ENDSEC
0
SECTION
2
BLOCKS
0
BLOCK
5
20
100
AcDbEntity
100
AcDbBlockBegin
2
*MODEL_SPACE
0
ENDBLK
5
21
100
AcDbEntity
100
AcDbBlockEnd
0
BLOCK
5
1C
100
AcDbEntity
100
AcDbBlockBegin
2
*PAPER_SPACE
0
ENDBLK
5
1D
100
AcDbEntity
100
AcDbBlockEnd
0
ENDSEC
0
SECTION
2
ENTITIES
0
LINE
5
100
100
AcDbEntity
8
0
100
AcDbLine
10
2.7946850393700799
20
0
30
0
11
4.0053149606299217
21
0
31
0
0
LINE
5
101
100
AcDbEntity
8
0
100
AcDbLine
10
4.0053149606299217
20
0
30
0
11
4.0250000000000012
21
0.01968503937007874
31
0
0
LINE
5
102
100
AcDbEntity
8
0
100
AcDbLine
10
4.0250000000000012
20
0.01968503937007874
30
0
11
4.0250000000000012
21
3.194999999999999
31
0
0
LINE
5
103
100
AcDbEntity
8
0
100
AcDbLine
10
4.0250000000000012
20
3.194999999999999
30
0
11
4.4621074532007849
21
3.194999999999999
31
0
0
LINE
5
104
100
AcDbEntity
8
0
100
AcDbLine
10
4.4621074532007849
20
3.194999999999999
30
0
11
4.5147825225348504
21
3.2320537491396233
31
0
0
LINE
5
105
100
AcDbEntity
8
0
100
AcDbLine
10
4.5147825225348504
20
3.2320537491396233
30
0
11
4.5778655721704844
21
3.4098389397982918
31
0
0
SPLINE
5
106
100
AcDbEntity
8
0
100
AcDbSpline
70
4
71
2
72
6
73
3
74
0
42
0.000000001
43
0.0000000001
44
0.0000000001
40
2.0280879158629919
40
2.0280879158629919
40
2.0280879158629919
40
2.8160854491375709
40
2.8160854491375709
40
2.8160854491375709
41
1.005831952104939
41
1.0049859261900456
41
1.0026020464813343
10
4.6742219072283104
20
3.6773338376784688
30
0
10
4.6241709921222665
20
3.538314474681282
30
0
10
4.5778655721704844
20
3.4098389397982918
30
0
0
ELLIPSE
5
107
100
AcDbEntity
8
0
100
AcDbEllipse
10
4.6825353657574551
20
3.7061465075145628
30
0
11
0.019202042813653782
21
-0.023049545587334439
31
0.0
40
0.99941943360284302
41
5.3074234367980537
42
6.8144066108125045
0
LINE
5
108
100
AcDbEntity
8
0
100
AcDbLine
10
4.7107609706897255
20
3.6959952947497787
30
0
11
4.910063514896124
21
4.2510431486952189
31
0
0
ELLIPSE
5
109
100
AcDbEntity
8
0
100
AcDbEllipse
10
4.8818379099638536
20
4.2611943614600039
30
0
11
0.019202042813653331
21
-0.023049545587334606
31
0.0
40
0.99941943360284247
41
0.53122130363289355
42
1.5516219691403721
0
ELLIPSE
5
110
100
AcDbEntity
8
0
100
AcDbEllipse
10
4.8082316766692177
20
3.78961899788455
30
0
11
0.32003404689416559
21
-0.38415909312229396
31
0.0
40
0.9994194336028428
41
2.2514014835073182
42
2.3594536950971357
0
ELLIPSE
5
111
100
AcDbEntity
8
0
100
AcDbEllipse
10
4.9143509944306007
20
5.0026347722107642
30
0
11
0.45956889134017009
21
-0.55165245772348914
31
0.0
40
0.99941943360284291
41
4.9861742193483263
42
5.5010463486866543
0
ELLIPSE
5
112
100
AcDbEntity
8
0
100
AcDbEllipse
10
4.2247046034603342
20
3.9994819038654548
30
0
11
0.32003404689422565
21
-0.38415909312224333
31
0.0
40
0.99941943360284236
41
1.844581565758654
42
1.862974994182599
0
ELLIPSE
5
113
100
AcDbEntity
8
0
100
AcDbEllipse
10
4.9142601586610031
20
5.0025233940530018
30
0
11
0.45956889134007201
21
-0.55165245772357019
31
0.0
40
0.99941943360284302
41
4.5454785832199356
42
4.973382171939301
0
ELLIPSE
5
114
100
AcDbEntity
8
0
100
AcDbEllipse
10
3.8624690594128332
20
4.389673537575626
30
0
11
0.32003404689422482
21
-0.38415909312224394
31
0.0
40
0.99941943360284236
41
1.4038859296300827
42
1.416395068195242
0
ELLIPSE
5
115
100
AcDbEntity
8
0
100
AcDbEllipse
10
4.9142025681103991
20
5.0024905043942978
30
0
11
0.45956889134010498
21
-0.55165245772354299
31
0.0
40
0.9994194336028428
41
4.1047829470913051
42
4.5367684033859987
0
ELLIPSE
5
116
100
AcDbEntity
8
0
100
AcDbEllipse
10
3.7012532157644418
20
4.8970529605757429
30
0
11
0.32003404689430193
21
-0.38415909312217972
31
0.0
40
0.99941943360284269
41
0.96319029350131635
42
1.0712425050911294
0
ELLIPSE
5
117
100
AcDbEntity
8
0
100
AcDbEllipse
10
4.1728212352866638
20
4.9703975233715134
30
0
11
-0.019202042813651909
21
0.023049545587336004
31
0.0
40
0.99941943360284236
41
4.9126146730480222
42
5.9330153385554016
0
LINE
5
118
100
AcDbEntity
8
0
100
AcDbLine
10
4.1626872076151527
20
4.9986318735881019
30
0
11
2.6373127923848494
21
4.9986318735881019
31
0
0
ELLIPSE
5
119
100
AcDbEntity
8
0
100
AcDbEllipse
10
2.6271787647133373
20
4.9703975233715134
30
0
11
0.019202042813651909
21
0.023049545587336004
31
0.0
40
0.99941943360284236
41
0.35016996862416416
42
1.3705706341315433
0
ELLIPSE
5
120
100
AcDbEntity
8
0
100
AcDbEllipse
10
3.0987467842355598
20
4.8970529605757429
30
0
11
-0.32003404689430193
21
-0.38415909312217972
31
0.0
40
0.99941943360284269
41
5.2119428020884566
42
5.3199950136782705
0
ELLIPSE
5
121
100
AcDbEntity
8
0
100
AcDbEllipse
10
1.8857974318896022
20
5.0024905043942978
30
0
11
-0.45956889134010498
21
-0.55165245772354299
31
0.0
40
0.9994194336028428
41
1.7464169037935886
42
2.1784023600882794
0
ELLIPSE
5
122
100
AcDbEntity
8
0
100
AcDbEllipse
10
2.9375309405871679
20
4.389673537575626
30
0
11
-0.32003404689422482
21
-0.38415909312224394
31
0.0
40
0.99941943360284236
41
4.8667902389843407
42
4.8792993775495015
0
ELLIPSE
5
123
100
AcDbEntity
8
0
100
AcDbEllipse
10
1.8857398413389985
20
5.0025233940530018
30
0
11
-0.45956889134007201
21
-0.55165245772357019
31
0.0
40
0.99941943360284302
41
1.309803135240287
42
1.7377067239596489
0
ELLIPSE
5
124
100
AcDbEntity
8
0
100
AcDbEllipse
10
2.5752953965396679
20
3.9994819038654548
30
0
11
-0.32003404689422565
21
-0.38415909312224333
31
0.0
40
0.99941943360284236
41
4.4202103129969865
42
4.4386037414209358
0
ELLIPSE
5
125
100
AcDbEntity
8
0
100
AcDbEllipse
10
1.8856490055694004
20
5.0026347722107642
30
0
11
-0.45956889134017009
21
-0.55165245772348914
31
0.0
40
0.99941943360284269
41
0.78213895849293202
42
1.2970110878312597
0
ELLIPSE
5
126
100
AcDbEntity
8
0
100
AcDbEllipse
10
1.9917683233307832
20
3.78961899788455
30
0
11
-0.32003404689416559
21
-0.38415909312229396
31
0.0
40
0.99941943360284302
41
3.9237316120824506
42
4.0317838236722654
0
ELLIPSE
5
127
100
AcDbEntity
8
0
100
AcDbEllipse
10
1.9181620900361478
20
4.2611943614600039
30
0
11
-0.019202042813653331
21
-0.023049545587334606
31
0.0
40
0.99941943360284247
41
4.7315633380391802
42
5.7519640035466288
0
LINE
5
128
100
AcDbEntity
8
0
100
AcDbLine
10
1.8899364851038774
20
4.2510431486952207
30
0
11
2.0892390293102761
21
3.6959952947497787
31
0
0
ELLIPSE
5
129
100
AcDbEntity
8
0
100
AcDbEllipse
10
2.1174646342425461
20
3.7061465075145628
30
0
11
-0.019202042813653782
21
-0.023049545587334439
31
0.0
40
0.99941943360284324
41
5.7519640035466919
42
7.2589471775611312
0
SPLINE
5
130
100
AcDbEntity
8
0
100
AcDbSpline
70
4
71
2
72
6
73
3
74
0
42
0.000000001
43
0.0000000001
44
0.0000000001
40
2.0280879158629919
40
2.0280879158629919
40
2.0280879158629919
40
2.8160854491375709
40
2.8160854491375709
40
2.8160854491375709
41
1.005831952104939
41
1.0049859261900456
41
1.0026020464813343
10
2.1257780927716921
20
3.6773338376784688
30
0
10
2.175829007877736
20
3.538314474681282
30
0
10
2.2221344278295176
20
3.4098389397982918
30
0
0
LINE
5
131
100
AcDbEntity
8
0
100
AcDbLine
10
2.2221344278295181
20
3.4098389397982918
30
0
11
2.2852174774651512
21
3.2320537491396233
31
0
0
LINE
5
132
100
AcDbEntity
8
0
100
AcDbLine
10
2.2852174774651512
20
3.2320537491396233
30
0
11
2.3378925467992167
21
3.194999999999999
31
0
0
LINE
5
133
100
AcDbEntity
8
0
100
AcDbLine
10
2.3378925467992167
20
3.194999999999999
30
0
11
2.7750000000000008
21
3.194999999999999
31
0
0
LINE
5
134
100
AcDbEntity
8
0
100
AcDbLine
10
2.7750000000000008
20
3.194999999999999
30
0
11
2.7750000000000008
21
0.019685039370079017
31
0
0
LINE
5
135
100
AcDbEntity
8
0
100
AcDbLine
10
2.7750000000000008
20
0.019685039370079017
30
0
11
2.7946850393700799
21
0
31
0
0
ENDSEC
0
SECTION
2
OBJECTS
0
DICTIONARY
5
C
100
AcDbDictionary
3
ACAD_GROUP
350
D
3
ACAD_MLINESTYLE
350
17
0
DICTIONARY
5
D
100
AcDbDictionary
0
DICTIONARY
5
1A
330
C
100
AcDbDictionary
0
DICTIONARY
5
17
100
AcDbDictionary
0
ENDSEC
0
EOF
