0
SECTION
2
HEADER
9
$INSUNITS
70
1
9
$ACADVER
1
AC1014
9
$HANDSEED
5
FFFF
0
ENDSEC
0
SECTION
2
TABLES
0
TABLE
2
VPORT
5
8
100
AcDbSymbolTable
0
ENDTAB
0
TABLE
2
LTYPE
5
5
100
AcDbSymbolTable
0
LTYPE
5
14
100
AcDbSymbolTableRecord
100
AcDbLinetypeTableRecord
2
BYBLOCK
70
0
0
LTYPE
5
15
100
AcDbSymbolTableRecord
100
AcDbLinetypeTableRecord
2
BYLAYER
70
0
0
LTYPE
5
16
100
AcDbSymbolTableRecord
100
AcDbLinetypeTableRecord
2
DASHED
70
0
3
Dashed __ __ __ __ __ __ __ __ __ __ __ __ __ _
72
65
73
2
40
0.75
49
0.5
74
0
49
-0.25
74
0
0
ENDTAB
0
TABLE
2
LAYER
5
2
100
AcDbSymbolTable
70
2
0
LAYER
5
50
100
AcDbSymbolTableRecord
100
AcDbLayerTableRecord
2
0
70
0
62
7
6
CONTINUOUS
0
ENDTAB
0
TABLE
2
STYLE
5
3
100
AcDbSymbolTable
70
1
0
STYLE
5
11
100
AcDbSymbolTableRecord
100
AcDbTextStyleTableRecord
2
STANDARD
70
0
0
ENDTAB
0
TABLE
2
VIEW
5
6
100
AcDbSymbolTable
70
0
0
ENDTAB
0
TABLE
2
UCS
5
7
100
AcDbSymbolTable
70
0
0
ENDTAB
0
TABLE
2
APPID
5
9
100
AcDbSymbolTable
70
2
0
APPID
5
12
100
AcDbSymbolTableRecord
100
AcDbRegAppTableRecord
2
ACAD
70
0
0
ENDTAB
0
TABLE
2
DIMSTYLE
5
A
100
AcDbSymbolTable
70
1
0
ENDTAB
0
TABLE
2
BLOCK_RECORD
5
1
100
AcDbSymbolTable
70
1
0
BLOCK_RECORD
5
1F
100
AcDbSymbolTableRecord
100
AcDbBlockTableRecord
2
*MODEL_SPACE
0
BLOCK_RECORD
5
1B
100
AcDbSymbolTableRecord
100
AcDbBlockTableRecord
2
*PAPER_SPACE
0
ENDTAB
0
ENDSEC
0
SECTION
2
BLOCKS
0
BLOCK
5
20
100
AcDbEntity
100
AcDbBlockBegin
2
*MODEL_SPACE
0
ENDBLK
5
21
100
AcDbEntity
100
AcDbBlockEnd
0
BLOCK
5
1C
100
AcDbEntity
100
AcDbBlockBegin
2
*PAPER_SPACE
0
ENDBLK
5
1D
100
AcDbEntity
100
AcDbBlockEnd
0
ENDSEC
0
SECTION
2
ENTITIES
0
LINE
5
100
100
AcDbEntity
8
0
100
AcDbLine
10
1.319685039370079
20
0
30
0
11
2.2803149606299216
21
0
31
0
0
LINE
5
101
100
AcDbEntity
8
0
100
AcDbLine
10
2.2803149606299216
20
0
30
0
11
2.3000000000000003
21
0.01968503937007874
31
0
0
LINE
5
102
100
AcDbEntity
8
0
100
AcDbLine
10
2.3000000000000003
20
0.01968503937007874
30
0
11
2.3000000000000003
21
3.3018078078489586
31
0
0
LINE
5
103
100
AcDbEntity
8
0
100
AcDbLine
10
2.3000000000000003
20
3.3018078078489586
30
0
11
2.2590680832010146
21
3.3427397246479438
31
0
0
LINE
5
104
100
AcDbEntity
8
0
100
AcDbLine
10
2.2590680832010146
20
3.3427397246479438
30
0
11
2.2590680832010146
21
3.542144506903341
31
0
0
LINE
5
105
100
AcDbEntity
8
0
100
AcDbLine
10
2.2590680832010146
20
3.542144506903341
30
0
11
2.3161906956013865
21
3.6621160348328905
31
0
0
ELLIPSE
5
106
100
AcDbEntity
8
0
100
AcDbEllipse
10
2.3257981276972846
20
3.6905226851183097
30
0
11
0.019202042813654806
21
-0.023049545587333603
31
0.0
40
0.99941943360284269
41
5.2622059425012395
42
6.7009602094328198
0
LINE
5
107
100
AcDbEntity
8
0
100
AcDbLine
10
2.3526950898666064
20
3.6772418172958492
30
0
11
2.5582888548196467
21
4.0940709525237589
31
0
0
ELLIPSE
5
108
100
AcDbEntity
8
0
100
AcDbEllipse
10
2.5313918926503249
20
4.1073518203462189
30
0
11
0.01920204281365466
21
-0.023049545587333554
31
0.0
40
0.99941943360284269
41
0.41777490225325964
42
1.677645630110886
0
ELLIPSE
5
109
100
AcDbEntity
8
0
100
AcDbEllipse
10
2.4755655451660954
20
3.7619522284509128
30
0
11
0.24002553517061836
21
-0.28811931984172451
31
0.0
40
0.99941943360284247
41
2.2407070655213466
42
2.3594536950971543
0
ELLIPSE
5
110
100
AcDbEntity
8
0
100
AcDbEllipse
10
2.5381219246017879
20
4.477014072429748
30
0
11
0.21954335616946288
21
-0.26353313788183891
31
0.0
40
0.99941943360284269
41
4.7592814165890829
42
5.501046348686673
0
ELLIPSE
5
111
100
AcDbEntity
8
0
100
AcDbEllipse
10
2.0089381969802367
20
3.9923580302135488
30
0
11
0.24002553517070493
21
-0.28811931984165245
31
0.0
40
0.9994194336028428
41
1.6176887629992662
42
1.6314650002823399
0
ELLIPSE
5
112
100
AcDbEntity
8
0
100
AcDbEllipse
10
2.5380684939136811
20
4.4769621387248977
30
0
11
0.21954335616945475
21
-0.26353313788184579
31
0.0
40
0.99941943360284224
41
4.1047829470912429
42
4.7442133912539814
0
ELLIPSE
5
113
100
AcDbEntity
8
0
100
AcDbEllipse
10
1.8230458050923359
20
4.4148076588712666
30
0
11
0.24002553517066683
21
-0.28811931984168443
31
0.0
40
0.99941943360284224
41
0.96319029350152097
42
1.0819369230773452
0
ELLIPSE
5
114
100
AcDbEntity
8
0
100
AcDbEllipse
10
2.1684411113785029
20
4.4704425488896744
30
0
11
-0.019202042813655232
21
0.023049545587333239
31
0.0
40
0.99941943360284269
41
4.7865910120775172
42
6.0464617399348848
0
LINE
5
115
100
AcDbEntity
8
0
100
AcDbLine
10
2.1551769975105648
20
4.4973499052233521
30
0
11
1.4448230024894355
21
4.4973499052233521
31
0
0
ELLIPSE
5
116
100
AcDbEntity
8
0
100
AcDbEllipse
10
1.4315588886214974
20
4.4704425488896744
30
0
11
0.019202042813655232
21
0.023049545587333239
31
0.0
40
0.9994194336028428
41
0.236723567244667
42
1.4965942951019735
0
ELLIPSE
5
117
100
AcDbEntity
8
0
100
AcDbEllipse
10
1.7769541949076646
20
4.4148076588712666
30
0
11
-0.24002553517066683
21
-0.28811931984168443
31
0.0
40
0.99941943360284202
41
5.2012483841022394
42
5.3199950136780636
0
ELLIPSE
5
118
100
AcDbEntity
8
0
100
AcDbEllipse
10
1.0619315060863195
20
4.4769621387248977
30
0
11
-0.21954335616945475
21
-0.26353313788184579
31
0.0
40
0.99941943360284224
41
1.5389719159256032
42
2.1784023600883442
0
ELLIPSE
5
119
100
AcDbEntity
8
0
100
AcDbEllipse
10
1.5910618030197636
20
3.9923580302135488
30
0
11
-0.24002553517070493
21
-0.28811931984165245
31
0.0
40
0.9994194336028428
41
4.6517203068972446
42
4.6654965441803196
0
ELLIPSE
5
120
100
AcDbEntity
8
0
100
AcDbEllipse
10
1.0618780753982124
20
4.477014072429748
30
0
11
-0.21954335616946288
21
-0.26353313788183891
31
0.0
40
0.99941943360284236
41
0.78213895849291226
42
1.523903890590502
0
ELLIPSE
5
121
100
AcDbEntity
8
0
100
AcDbEllipse
10
1.1244344548339051
20
3.7619522284509128
30
0
11
-0.24002553517061836
21
-0.28811931984172451
31
0.0
40
0.99941943360284224
41
3.9237316120824328
42
4.0424782416582374
0
ELLIPSE
5
122
100
AcDbEntity
8
0
100
AcDbEllipse
10
1.0686081073496754
20
4.1073518203462189
30
0
11
-0.01920204281365466
21
-0.023049545587333554
31
0.0
40
0.99941943360284269
41
4.6055396770686903
42
5.8654104049263491
0
LINE
5
123
100
AcDbEntity
8
0
100
AcDbLine
10
1.0417111451803533
20
4.0940709525237589
30
0
11
1.247304910133394
21
3.6772418172958492
31
0
0
ELLIPSE
5
124
100
AcDbEntity
8
0
100
AcDbEllipse
10
1.274201872302716
20
3.6905226851183097
30
0
11
-0.019202042813654806
21
-0.023049545587333603
31
0.0
40
0.99941943360284269
41
5.8654104049263296
42
7.3041646718579347
0
LINE
5
125
100
AcDbEntity
8
0
100
AcDbLine
10
1.2838093043986141
20
3.6621160348328905
30
0
11
1.3409319167989859
21
3.542144506903341
31
0
0
LINE
5
126
100
AcDbEntity
8
0
100
AcDbLine
10
1.3409319167989859
20
3.542144506903341
30
0
11
1.3409319167989859
21
3.3427397246479438
31
0
0
LINE
5
127
100
AcDbEntity
8
0
100
AcDbLine
10
1.3409319167989859
20
3.3427397246479438
30
0
11
1.3
21
3.3018078078489586
31
0
0
LINE
5
128
100
AcDbEntity
8
0
100
AcDbLine
10
1.3
20
3.3018078078489586
30
0
11
1.3
21
0.019685039370079017
31
0
0
LINE
5
129
100
AcDbEntity
8
0
100
AcDbLine
10
1.3
20
0.019685039370079017
30
0
11
1.319685039370079
21
0
31
0
0
ENDSEC
0
SECTION
2
OBJECTS
0
DICTIONARY
5
C
100
AcDbDictionary
3
ACAD_GROUP
350
D
3
ACAD_MLINESTYLE
350
17
0
DICTIONARY
5
D
100
AcDbDictionary
0
DICTIONARY
5
1A
330
C
100
AcDbDictionary
0
DICTIONARY
5
17
100
AcDbDictionary
0
ENDSEC
0
EOF
