0
SECTION
2
HEADER
9
$INSUNITS
70
1
9
$ACADVER
1
AC1014
9
$HANDSEED
5
FFFF
0
ENDSEC
0
SECTION
2
TABLES
0
TABLE
2
VPORT
5
8
100
AcDbSymbolTable
0
ENDTAB
0
TABLE
2
LTYPE
5
5
100
AcDbSymbolTable
0
LTYPE
5
14
100
AcDbSymbolTableRecord
100
AcDbLinetypeTableRecord
2
BYBLOCK
70
0
0
LTYPE
5
15
100
AcDbSymbolTableRecord
100
AcDbLinetypeTableRecord
2
BYLAYER
70
0
0
LTYPE
5
16
100
AcDbSymbolTableRecord
100
AcDbLinetypeTableRecord
2
DASHED
70
0
3
Dashed __ __ __ __ __ __ __ __ __ __ __ __ __ _
72
65
73
2
40
0.75
49
0.5
74
0
49
-0.25
74
0
0
ENDTAB
0
TABLE
2
LAYER
5
2
100
AcDbSymbolTable
70
2
0
LAYER
5
50
100
AcDbSymbolTableRecord
100
AcDbLayerTableRecord
2
0
70
0
62
7
6
CONTINUOUS
0
ENDTAB
0
TABLE
2
STYLE
5
3
100
AcDbSymbolTable
70
1
0
STYLE
5
11
100
AcDbSymbolTableRecord
100
AcDbTextStyleTableRecord
2
STANDARD
70
0
0
ENDTAB
0
TABLE
2
VIEW
5
6
100
AcDbSymbolTable
70
0
0
ENDTAB
0
TABLE
2
UCS
5
7
100
AcDbSymbolTable
70
0
0
ENDTAB
0
TABLE
2
APPID
5
9
100
AcDbSymbolTable
70
2
0
APPID
5
12
100
AcDbSymbolTableRecord
100
AcDbRegAppTableRecord
2
ACAD
70
0
0
ENDTAB
0
TABLE
2
DIMSTYLE
5
A
100
AcDbSymbolTable
70
1
0
ENDTAB
0
TABLE
2
BLOCK_RECORD
5
1
100
AcDbSymbolTable
70
1
0
BLOCK_RECORD
5
1F
100
AcDbSymbolTableRecord
100
AcDbBlockTableRecord
2
*MODEL_SPACE
0
BLOCK_RECORD
5
1B
100
AcDbSymbolTableRecord
100
AcDbBlockTableRecord
2
*PAPER_SPACE
0
ENDTAB
0
ENDSEC
0
SECTION
2
BLOCKS
0
BLOCK
5
20
100
AcDbEntity
100
AcDbBlockBegin
2
*MODEL_SPACE
0
ENDBLK
5
21
100
AcDbEntity
100
AcDbBlockEnd
0
BLOCK
5
1C
100
AcDbEntity
100
AcDbBlockBegin
2
*PAPER_SPACE
0
ENDBLK
5
1D
100
AcDbEntity
100
AcDbBlockEnd
0
ENDSEC
0
SECTION
2
ENTITIES
0
LINE
5
100
100
AcDbEntity
8
0
100
AcDbLine
10
0.62499987204689378
20
-3.8895060796108343
30
0
11
-0.62272677060678272
21
-3.8895060793214999
31
0
0
LINE
5
101
100
AcDbEntity
8
0
100
AcDbLine
10
0.62499999999999978
20
-0.039370078740157334
30
0
11
-0.62499999999999978
21
-0.039370078740157334
31
0
0
ELLIPSE
5
102
100
AcDbEntity
8
0
100
AcDbEllipse
10
0.54898602718318268
20
-4.2614055932688224
30
0
11
-0.11712205310667831
21
-0.093714591585710078
31
0.0
40
0.99960975848072853
41
0
42
6.2831853071795862
0
ELLIPSE
5
103
100
AcDbEntity
8
0
100
AcDbEllipse
10
0.79078725970633068
20
-3.607915394765691
30
0
11
0.68321197645561471
21
0.54666845091665295
31
0.0
40
0.99960975848072886
41
4.085746757370492
42
4.1596788917527103
0
ELLIPSE
5
104
100
AcDbEntity
8
0
100
AcDbEllipse
10
0.87600457312262836
20
-4.4549520020552906
30
0
11
0.023424410621335153
21
0.018742918317142501
31
0.0
40
0.99960975848072864
41
4.8222038452312255
42
6.0274255502141578
0
LINE
5
105
100
AcDbEntity
8
0
100
AcDbLine
10
0.90340676272996467
20
-4.4427423723200263
30
0
11
0.66346869261212271
21
-3.9039701814428538
31
0
0
ELLIPSE
5
106
100
AcDbEntity
8
0
100
AcDbEllipse
10
0.63606650300478684
20
-3.9161798111781168
30
0
11
0.02342441062133584
21
0.01874291831714181
31
0.0
40
0.99960975848072875
41
6.0274255502142235
42
7.5982218770091166
0
LINE
5
107
100
AcDbEntity
8
0
100
AcDbLine
10
0.62386626215133734
20
-3.8887846150318199
30
0
11
0.2219674812437373
21
-4.0678591844823524
31
0
0
ELLIPSE
5
108
100
AcDbEntity
8
0
100
AcDbEllipse
10
0.23416772209718709
20
-4.0952543806286492
30
0
11
-0.023424410621333876
21
-0.018742918317144235
31
0.0
40
0.99960975848072875
41
4.4566292234192169
42
6.0274255502141099
0
LINE
5
109
100
AcDbEntity
8
0
100
AcDbLine
10
0.20676553248985075
20
-4.1074640103639135
30
0
11
0.44670360260769265
21
-4.6462362012410878
31
0
0
ELLIPSE
5
110
100
AcDbEntity
8
0
100
AcDbEllipse
10
0.47410579221502863
20
-4.6340265715058244
30
0
11
-0.02342441062133584
21
-0.01874291831714181
31
0.0
40
0.99960975848072875
41
6.0274255502142093
42
7.2326472551975751
0
ELLIPSE
5
111
100
AcDbEntity
8
0
100
AcDbEllipse
10
-0.098421621702046602
20
-4.0041213678970324
30
0
11
0.68321197645548837
21
0.54666845091681138
31
0.0
40
0.99960975848072864
41
4.7535795550856443
42
4.8275116894678529
0
ELLIPSE
5
112
100
AcDbEntity
8
0
100
AcDbEllipse
10
0.85521207260476761
20
-4.949025016540876
30
0
11
-0.36542080569282204
21
-0.2923895257474331
31
0.0
40
0.99960975848072875
41
4.0857467573704582
42
4.8275116894680448
0
ELLIPSE
5
113
100
AcDbEntity
8
0
100
AcDbEllipse
10
0.16738098880399624
20
-4.6430532494225014
30
0
11
-0.11712205310668097
21
-0.093714591585706941
31
0.0
40
0.99960975848072853
41
0
42
6.2831853071795862
0
ELLIPSE
5
114
100
AcDbEntity
8
0
100
AcDbEllipse
10
-0.090171824019311092
20
-3.9957991421742038
30
0
11
0.68321197645558829
21
0.54666845091668603
31
0.0
40
0.99960975848072886
41
4.8187850432080612
42
4.8927171775902796
0
ELLIPSE
5
115
100
AcDbEntity
8
0
100
AcDbEllipse
10
0.54000538100510143
20
-4.5680375422736947
30
0
11
0.023424410621334577
21
0.018742918317143236
31
0.0
40
0.99960975848072875
41
5.5552421310688072
42
6.7604638360517404
0
LINE
5
116
100
AcDbEntity
8
0
100
AcDbLine
10
0.55220562185855127
20
-4.5406330549062472
30
0
11
0.013295892914270038
21
-4.3009207491255133
31
0
0
ELLIPSE
5
117
100
AcDbEntity
8
0
100
AcDbEllipse
10
0.001095652060820425
20
-4.3283252364929607
30
0
11
-0.023424410621333696
21
-0.018742918317144495
31
0.0
40
0.99960975848072875
41
3.6188711824619224
42
5.1896675092568252
0
LINE
5
118
100
AcDbEntity
8
0
100
AcDbLine
10
-0.026306537546515848
20
-4.3161364751820761
30
0
11
-0.20524340339711003
21
-4.7180689565713072
31
0
0
ELLIPSE
5
119
100
AcDbEntity
8
0
100
AcDbEllipse
10
-0.17784121378977338
20
-4.7302577178821918
30
0
11
-0.023424410621335622
21
-0.018742918317142067
31
0.0
40
0.99960975848072864
41
5.189667509256914
42
6.7604638360518425
0
LINE
5
120
100
AcDbEntity
8
0
100
AcDbLine
10
-0.19004145464322286
20
-4.7576622052496402
30
0
11
0.34886827430105838
21
-4.9973745110303733
31
0
0
ELLIPSE
5
121
100
AcDbEntity
8
0
100
AcDbEllipse
10
0.36106851515450783
20
-4.9699700236629258
30
0
11
0.023424410621333696
21
0.018742918317144495
31
0.0
40
0.99960975848072875
41
3.6188711824618971
42
4.8240928874452766
0
ELLIPSE
5
122
100
AcDbEntity
8
0
100
AcDbEllipse
10
-0.48607312525343643
20
-4.885082586554649
30
0
11
0.68321197645559573
21
0.54666845091667693
31
0.0
40
0.99960975848072864
41
5.4866178409234596
42
5.5605499753056682
0
ELLIPSE
5
123
100
AcDbEntity
8
0
100
AcDbEllipse
10
0.85517594794813845
20
-4.9489911583257085
30
0
11
-0.36542080569287466
21
-0.29238952574736715
31
0.0
40
0.99960975848072886
41
4.8187850432082602
42
5.5605499753058458
0
LINE
5
124
100
AcDbEntity
8
0
100
AcDbLine
10
-0.62499999999999978
20
-0.039370078740157334
30
0
11
-0.62272677060678272
21
-3.8895060793214999
31
0
0
LINE
5
125
100
AcDbEntity
8
0
100
AcDbLine
10
0.62499987208673957
20
-3.8883071105663225
30
0
11
0.62499999999999978
21
-0.039370078740157334
31
0
0
ELLIPSE
5
126
100
AcDbEntity
8
0
100
AcDbEllipse
10
0.48607312525343643
20
-4.885082586554649
30
0
11
-0.68321197645559573
21
0.54666845091667693
31
0.0
40
0.99960975848072864
41
0.72263533187391793
42
0.7965674662561264
6
DASHED
0
ELLIPSE
5
127
100
AcDbEntity
8
0
100
AcDbEllipse
10
-0.36106851515450783
20
-4.9699700236629258
30
0
11
-0.023424410621333696
21
0.018742918317144495
31
0.0
40
0.99960975848072875
41
1.4590924197342992
42
2.6643141247176891
6
DASHED
0
ELLIPSE
5
128
100
AcDbEntity
8
0
100
AcDbEllipse
10
-0.85517594794813845
20
-4.9489911583257085
30
0
11
0.36542080569287466
21
-0.29238952574736715
31
0.0
40
0.99960975848072886
41
0.72263533187374074
42
1.4644002639713263
6
DASHED
0
ELLIPSE
5
129
100
AcDbEntity
8
0
100
AcDbEllipse
10
-0.85521207260476761
20
-4.949025016540876
30
0
11
0.36542080569282204
21
-0.2923895257474331
31
0.0
40
0.99960975848072875
41
1.4556736177115417
42
2.1974385498091276
6
DASHED
0
ELLIPSE
5
130
100
AcDbEntity
8
0
100
AcDbEllipse
10
-0.79078725970633068
20
-3.607915394765691
30
0
11
-0.68321197645561471
21
0.54666845091665295
31
0.0
40
0.99960975848072908
41
2.1235064154268768
42
2.1974385498090938
6
DASHED
0
ELLIPSE
5
131
100
AcDbEntity
8
0
100
AcDbEllipse
10
-0.87600457312262836
20
-4.4549520020552906
30
0
11
-0.023424410621335153
21
0.018742918317142501
31
0.0
40
0.99960975848072864
41
0.25575975696542808
42
1.4609814619483603
6
DASHED
0
LINE
5
132
100
AcDbEntity
8
0
100
AcDbLine
10
-0.90340676272996467
20
-4.4427423723200263
30
0
11
-0.66346869261212271
21
-3.9039701814428538
31
0
6
DASHED
0
ELLIPSE
5
133
100
AcDbEntity
8
0
100
AcDbEllipse
10
-0.63606650300478684
20
-3.9161798111781168
30
0
11
-0.02342441062133584
21
0.01874291831714181
31
0.0
40
0.99960975848072875
41
4.9681487373500559
42
6.5389450641449489
6
DASHED
0
LINE
5
134
100
AcDbEntity
8
0
100
AcDbLine
10
-0.34886827430105838
20
-4.9973745110303733
30
0
11
0.34886827430105838
21
-4.9973745110303733
31
0
6
DASHED
0
ENDSEC
0
SECTION
2
OBJECTS
0
DICTIONARY
5
C
100
AcDbDictionary
3
ACAD_GROUP
350
D
3
ACAD_MLINESTYLE
350
17
0
DICTIONARY
5
D
100
AcDbDictionary
0
DICTIONARY
5
1A
330
C
100
AcDbDictionary
0
DICTIONARY
5
17
100
AcDbDictionary
0
ENDSEC
0
EOF
