0
SECTION
2
HEADER
9
$INSUNITS
70
1
9
$ACADVER
1
AC1014
9
$HANDSEED
5
FFFF
0
ENDSEC
0
SECTION
2
TABLES
0
TABLE
2
VPORT
5
8
100
AcDbSymbolTable
0
ENDTAB
0
TABLE
2
LTYPE
5
5
100
AcDbSymbolTable
0
LTYPE
5
14
100
AcDbSymbolTableRecord
100
AcDbLinetypeTableRecord
2
BYBLOCK
70
0
0
LTYPE
5
15
100
AcDbSymbolTableRecord
100
AcDbLinetypeTableRecord
2
BYLAYER
70
0
0
LTYPE
5
16
100
AcDbSymbolTableRecord
100
AcDbLinetypeTableRecord
2
DASHED
70
0
3
Dashed __ __ __ __ __ __ __ __ __ __ __ __ __ _
72
65
73
2
40
0.75
49
0.5
74
0
49
-0.25
74
0
0
ENDTAB
0
TABLE
2
LAYER
5
2
100
AcDbSymbolTable
70
2
0
LAYER
5
50
100
AcDbSymbolTableRecord
100
AcDbLayerTableRecord
2
0
70
0
62
7
6
CONTINUOUS
0
ENDTAB
0
TABLE
2
STYLE
5
3
100
AcDbSymbolTable
70
1
0
STYLE
5
11
100
AcDbSymbolTableRecord
100
AcDbTextStyleTableRecord
2
STANDARD
70
0
0
ENDTAB
0
TABLE
2
VIEW
5
6
100
AcDbSymbolTable
70
0
0
ENDTAB
0
TABLE
2
UCS
5
7
100
AcDbSymbolTable
70
0
0
ENDTAB
0
TABLE
2
APPID
5
9
100
AcDbSymbolTable
70
2
0
APPID
5
12
100
AcDbSymbolTableRecord
100
AcDbRegAppTableRecord
2
ACAD
70
0
0
ENDTAB
0
TABLE
2
DIMSTYLE
5
A
100
AcDbSymbolTable
70
1
0
ENDTAB
0
TABLE
2
BLOCK_RECORD
5
1
100
AcDbSymbolTable
70
1
0
BLOCK_RECORD
5
1F
100
AcDbSymbolTableRecord
100
AcDbBlockTableRecord
2
*MODEL_SPACE
0
BLOCK_RECORD
5
1B
100
AcDbSymbolTableRecord
100
AcDbBlockTableRecord
2
*PAPER_SPACE
0
ENDTAB
0
ENDSEC
0
SECTION
2
BLOCKS
0
BLOCK
5
20
100
AcDbEntity
100
AcDbBlockBegin
2
*MODEL_SPACE
0
ENDBLK
5
21
100
AcDbEntity
100
AcDbBlockEnd
0
BLOCK
5
1C
100
AcDbEntity
100
AcDbBlockBegin
2
*PAPER_SPACE
0
ENDBLK
5
1D
100
AcDbEntity
100
AcDbBlockEnd
0
ENDSEC
0
SECTION
2
ENTITIES
0
LINE
5
100
100
AcDbEntity
8
0
100
AcDbLine
10
3.2946850393700795
20
0
30
0
11
4.5053149606299217
21
0
31
0
0
LINE
5
101
100
AcDbEntity
8
0
100
AcDbLine
10
4.5053149606299217
20
0
30
0
11
4.5250000000000004
21
0.01968503937007874
31
0
0
LINE
5
102
100
AcDbEntity
8
0
100
AcDbLine
10
4.5250000000000004
20
0.01968503937007874
30
0
11
4.5250000000000004
21
3.1839999999999997
31
0
0
LINE
5
103
100
AcDbEntity
8
0
100
AcDbLine
10
4.5250000000000004
20
3.1839999999999997
30
0
11
5.3054201783453738
21
3.1839999999999997
31
0
0
LINE
5
104
100
AcDbEntity
8
0
100
AcDbLine
10
5.3054201783453738
20
3.1839999999999997
30
0
11
5.3554774470098607
21
3.2218917810550982
31
0
0
LINE
5
105
100
AcDbEntity
8
0
100
AcDbLine
10
5.3554774470098607
20
3.2218917810550982
30
0
11
5.504789423560009
21
3.7512822723256392
31
0
0
ELLIPSE
5
106
100
AcDbEntity
8
0
100
AcDbEllipse
10
5.5103493763074951
20
3.7807520015838247
30
0
11
0.019202042813657755
21
-0.02304954558733114
31
0.0
40
0.99941943360284236
41
5.4018387020161711
42
6.884219780892102
0
LINE
5
107
100
AcDbEntity
8
0
100
AcDbLine
10
5.5392131391199539
20
3.7725942377335011
30
0
11
5.6993081251813003
21
4.3402162415350594
31
0
0
ELLIPSE
5
108
100
AcDbEntity
8
0
100
AcDbEllipse
10
5.6704443623688405
20
4.3483740053853825
30
0
11
0.019202042813656856
21
-0.023049545587331664
31
0.0
40
0.9994194336028428
41
0.60103447371253083
42
1.2191965069929944
0
ELLIPSE
5
109
100
AcDbEntity
8
0
100
AcDbEllipse
10
5.5746167997027385
20
3.8742869223995964
30
0
11
0.32003404689414339
21
-0.3841590931223125
31
0.0
40
0.99941943360284247
41
2.1958775166657127
42
2.3594536950971916
0
ELLIPSE
5
110
100
AcDbEntity
8
0
100
AcDbEllipse
10
5.694414880098388
20
5.2436602308548883
30
0
11
0.5600595820649521
21
-0.6722784129638778
31
0.0
40
0.99941943360284213
41
5.1258005595079021
42
5.5010463486866827
0
ELLIPSE
5
111
100
AcDbEntity
8
0
100
AcDbEllipse
10
5.081103125736357
20
4.0137686675650501
30
0
11
0.32003404689422849
21
-0.38415909312224156
31
0.0
40
0.99941943360284247
41
1.9842079059181876
42
2.0038021169581528
0
ELLIPSE
5
112
100
AcDbEntity
8
0
100
AcDbEllipse
10
5.6943232173914913
20
5.2435378427645221
30
0
11
0.56005958206494588
21
-0.6722784129638828
31
0.0
40
0.99941943360284247
41
4.7854613553690175
42
5.1146356829032502
0
ELLIPSE
5
113
100
AcDbEntity
8
0
100
AcDbEllipse
10
4.7055699291283837
20
4.2891747027342975
30
0
11
0.32003404689424186
21
-0.38415909312223046
31
0.0
40
0.99941943360284247
41
1.6438687017792595
42
1.6598392011382215
0
ELLIPSE
5
114
100
AcDbEntity
8
0
100
AcDbEllipse
10
5.6942514066465648
20
5.2434680439622934
30
0
11
0.56005958206495043
21
-0.67227841296387936
31
0.0
40
0.99941943360284247
41
4.4451221512301169
42
4.7763352175768201
0
ELLIPSE
5
115
100
AcDbEntity
8
0
100
AcDbEllipse
10
4.4434834130673364
20
4.6741150205291229
30
0
11
0.32003404689424597
21
-0.38415909312222701
31
0.0
40
0.99941943360284247
41
1.3035294976403555
42
1.3140745170337831
0
ELLIPSE
5
116
100
AcDbEntity
8
0
100
AcDbEllipse
10
5.6942076857781148
20
5.2434588415586401
30
0
11
0.56005958206512996
21
-0.67227841296372937
31
0.0
40
0.99941943360284213
41
4.1047829470909551
42
4.4391076308826722
0
ELLIPSE
5
117
100
AcDbEntity
8
0
100
AcDbEllipse
10
4.3249093610854272
20
5.1244304156550973
30
0
11
0.32003404689428688
21
-0.38415909312219271
31
0.0
40
0.99941943360284236
41
0.9631902935013531
42
1.1267664719328312
0
ELLIPSE
5
118
100
AcDbEntity
8
0
100
AcDbEllipse
10
4.7990015294196295
20
5.2199971933378215
30
0
11
0.019202042813653047
21
-0.02304954558733505
31
0.0
40
0.99941943360284247
41
2.1034474816053113
42
2.721609514885782
0
LINE
5
119
100
AcDbEntity
8
0
100
AcDbLine
10
4.7908611063995608
20
5.2488686294415361
30
0
11
3.0091388936004413
21
5.2488686294415361
31
0
0
ELLIPSE
5
120
100
AcDbEntity
8
0
100
AcDbEllipse
10
3.0009984705803716
20
5.2199971933378215
30
0
11
-0.019202042813653047
21
-0.02304954558733505
31
0.0
40
0.99941943360284247
41
3.5615757922937301
42
4.1797378255742332
0
ELLIPSE
5
121
100
AcDbEntity
8
0
100
AcDbEllipse
10
3.4750906389145739
20
5.1244304156550973
30
0
11
-0.32003404689428688
21
-0.38415909312219271
31
0.0
40
0.99941943360284236
41
5.1564188352467539
42
5.3199950136782315
0
ELLIPSE
5
122
100
AcDbEntity
8
0
100
AcDbEllipse
10
2.1057923142218868
20
5.2434588415586401
30
0
11
-0.56005958206512996
21
-0.67227841296372937
31
0.0
40
0.99941943360284213
41
1.8440776762969131
42
2.1784023600886302
0
ELLIPSE
5
123
100
AcDbEntity
8
0
100
AcDbEllipse
10
3.3565165869326652
20
4.6741150205291229
30
0
11
-0.32003404689424597
21
-0.38415909312222701
31
0.0
40
0.99941943360284247
41
4.9691107901458
42
4.9796558095392314
0
ELLIPSE
5
124
100
AcDbEntity
8
0
100
AcDbEllipse
10
2.1057485933534359
20
5.2434680439622934
30
0
11
-0.56005958206495043
21
-0.67227841296387936
31
0.0
40
0.99941943360284247
41
1.5068500896027657
42
1.8380631559494682
0
ELLIPSE
5
125
100
AcDbEntity
8
0
100
AcDbEllipse
10
3.0944300708716179
20
4.2891747027342975
30
0
11
-0.32003404689424186
21
-0.38415909312223046
31
0.0
40
0.99941943360284269
41
4.6233461060413656
42
4.6393166054003254
0
ELLIPSE
5
126
100
AcDbEntity
8
0
100
AcDbEllipse
10
2.1056767826085099
20
5.2435378427645221
30
0
11
-0.56005958206494588
21
-0.6722784129638828
31
0.0
40
0.99941943360284269
41
1.1685496242763367
42
1.4977239518105689
0
ELLIPSE
5
127
100
AcDbEntity
8
0
100
AcDbEllipse
10
2.7188968742636441
20
4.0137686675650501
30
0
11
-0.32003404689422849
21
-0.38415909312224156
31
0.0
40
0.99941943360284269
41
4.2793831902214308
42
4.2989774012613973
0
ELLIPSE
5
128
100
AcDbEntity
8
0
100
AcDbEllipse
10
2.1055851199016131
20
5.2436602308548883
30
0
11
-0.5600595820649521
21
-0.6722784129638778
31
0.0
40
0.99941943360284213
41
0.78213895849290527
42
1.1573847476716848
0
ELLIPSE
5
129
100
AcDbEntity
8
0
100
AcDbEllipse
10
2.2253832002972631
20
3.8742869223995964
30
0
11
-0.32003404689414339
21
-0.3841590931223125
31
0.0
40
0.99941943360284247
41
3.923731612082392
42
4.0873077905138713
0
ELLIPSE
5
130
100
AcDbEntity
8
0
100
AcDbEllipse
10
2.1295556376311602
20
4.3483740053853825
30
0
11
-0.019202042813656856
21
-0.023049545587331664
31
0.0
40
0.9994194336028428
41
5.0639888001865101
42
5.6821508334670199
0
LINE
5
131
100
AcDbEntity
8
0
100
AcDbLine
10
2.1006918748187013
20
4.3402162415350594
30
0
11
2.2607868608800472
21
3.7725942377335011
31
0
0
ELLIPSE
5
132
100
AcDbEntity
8
0
100
AcDbEllipse
10
2.289650623692506
20
3.7807520015838247
30
0
11
-0.019202042813657755
21
-0.02304954558733114
31
0.0
40
0.99941943360284236
41
5.6821508334670749
42
7.1645319123430138
0
LINE
5
133
100
AcDbEntity
8
0
100
AcDbLine
10
2.2952105764399922
20
3.7512822723256392
30
0
11
2.4445225529901404
21
3.2218917810550982
31
0
0
LINE
5
134
100
AcDbEntity
8
0
100
AcDbLine
10
2.4445225529901404
20
3.2218917810550982
30
0
11
2.4945798216546273
21
3.1839999999999997
31
0
0
LINE
5
135
100
AcDbEntity
8
0
100
AcDbLine
10
2.4945798216546273
20
3.1839999999999997
30
0
11
3.2750000000000004
21
3.1839999999999997
31
0
0
LINE
5
136
100
AcDbEntity
8
0
100
AcDbLine
10
3.2750000000000004
20
3.1839999999999997
30
0
11
3.2750000000000004
21
0.019685039370079017
31
0
0
LINE
5
137
100
AcDbEntity
8
0
100
AcDbLine
10
3.2750000000000004
20
0.019685039370079017
30
0
11
3.2946850393700795
21
0
31
0
0
ENDSEC
0
SECTION
2
OBJECTS
0
DICTIONARY
5
C
100
AcDbDictionary
3
ACAD_GROUP
350
D
3
ACAD_MLINESTYLE
350
17
0
DICTIONARY
5
D
100
AcDbDictionary
0
DICTIONARY
5
1A
330
C
100
AcDbDictionary
0
DICTIONARY
5
17
100
AcDbDictionary
0
ENDSEC
0
EOF
