0
SECTION
2
HEADER
9
$INSUNITS
70
1
9
$ACADVER
1
AC1014
9
$HANDSEED
5
FFFF
0
ENDSEC
0
SECTION
2
TABLES
0
TABLE
2
VPORT
5
8
100
AcDbSymbolTable
0
ENDTAB
0
TABLE
2
LTYPE
5
5
100
AcDbSymbolTable
0
LTYPE
5
14
100
AcDbSymbolTableRecord
100
AcDbLinetypeTableRecord
2
BYBLOCK
70
0
0
LTYPE
5
15
100
AcDbSymbolTableRecord
100
AcDbLinetypeTableRecord
2
BYLAYER
70
0
0
LTYPE
5
16
100
AcDbSymbolTableRecord
100
AcDbLinetypeTableRecord
2
DASHED
70
0
3
Dashed __ __ __ __ __ __ __ __ __ __ __ __ __ _
72
65
73
2
40
0.75
49
0.5
74
0
49
-0.25
74
0
0
ENDTAB
0
TABLE
2
LAYER
5
2
100
AcDbSymbolTable
70
2
0
LAYER
5
50
100
AcDbSymbolTableRecord
100
AcDbLayerTableRecord
2
0
70
0
62
7
6
CONTINUOUS
0
ENDTAB
0
TABLE
2
STYLE
5
3
100
AcDbSymbolTable
70
1
0
STYLE
5
11
100
AcDbSymbolTableRecord
100
AcDbTextStyleTableRecord
2
STANDARD
70
0
0
ENDTAB
0
TABLE
2
VIEW
5
6
100
AcDbSymbolTable
70
0
0
ENDTAB
0
TABLE
2
UCS
5
7
100
AcDbSymbolTable
70
0
0
ENDTAB
0
TABLE
2
APPID
5
9
100
AcDbSymbolTable
70
2
0
APPID
5
12
100
AcDbSymbolTableRecord
100
AcDbRegAppTableRecord
2
ACAD
70
0
0
ENDTAB
0
TABLE
2
DIMSTYLE
5
A
100
AcDbSymbolTable
70
1
0
ENDTAB
0
TABLE
2
BLOCK_RECORD
5
1
100
AcDbSymbolTable
70
1
0
BLOCK_RECORD
5
1F
100
AcDbSymbolTableRecord
100
AcDbBlockTableRecord
2
*MODEL_SPACE
0
BLOCK_RECORD
5
1B
100
AcDbSymbolTableRecord
100
AcDbBlockTableRecord
2
*PAPER_SPACE
0
ENDTAB
0
ENDSEC
0
SECTION
2
BLOCKS
0
BLOCK
5
20
100
AcDbEntity
100
AcDbBlockBegin
2
*MODEL_SPACE
0
ENDBLK
5
21
100
AcDbEntity
100
AcDbBlockEnd
0
BLOCK
5
1C
100
AcDbEntity
100
AcDbBlockBegin
2
*PAPER_SPACE
0
ENDBLK
5
1D
100
AcDbEntity
100
AcDbBlockEnd
0
ENDSEC
0
SECTION
2
ENTITIES
0
LINE
5
100
100
AcDbEntity
8
0
100
AcDbLine
10
3.4946850393700797
20
0
30
0
11
4.7053149606299218
21
0
31
0
0
LINE
5
101
100
AcDbEntity
8
0
100
AcDbLine
10
4.7053149606299218
20
0
30
0
11
4.7250000000000014
21
0.01968503937007874
31
0
0
LINE
5
102
100
AcDbEntity
8
0
100
AcDbLine
10
4.7250000000000014
20
0.01968503937007874
30
0
11
4.7250000000000014
21
3.2240000000000002
31
0
0
LINE
5
103
100
AcDbEntity
8
0
100
AcDbLine
10
4.7250000000000014
20
3.2240000000000002
30
0
11
5.6123443184552029
21
3.2240000000000002
31
0
0
LINE
5
104
100
AcDbEntity
8
0
100
AcDbLine
10
5.6123443184552029
20
3.2240000000000002
30
0
11
5.6624015871196898
21
3.2618917810550987
31
0
0
LINE
5
105
100
AcDbEntity
8
0
100
AcDbLine
10
5.6624015871196898
20
3.2618917810550987
30
0
11
5.782312945147754
21
3.6870414187606468
31
0
0
ELLIPSE
5
106
100
AcDbEntity
8
0
100
AcDbEllipse
10
5.7878728978952383
20
3.7165111480188329
30
0
11
0.019202042813657755
21
-0.02304954558733114
31
0.0
40
0.99941943360284236
41
5.4018387020162102
42
6.8842197808920504
0
LINE
5
107
100
AcDbEntity
8
0
100
AcDbLine
10
5.816736660707698
20
3.7083533841685079
30
0
11
5.9768316467690443
21
4.2759753879700666
31
0
0
ELLIPSE
5
108
100
AcDbEntity
8
0
100
AcDbEllipse
10
5.9479678839565855
20
4.2841331518203898
30
0
11
0.019202042813658039
21
-0.023049545587330664
31
0.0
40
0.99941943360284302
41
0.60103447371249596
42
1.2554589917620358
0
ELLIPSE
5
109
100
AcDbEntity
8
0
100
AcDbEllipse
10
5.8692729261241183
20
3.8068992587282016
30
0
11
0.32003404689428006
21
-0.38415909312219904
31
0.0
40
0.9994194336028428
41
2.2318975826405221
42
2.3594536950968372
0
ELLIPSE
5
110
100
AcDbEntity
8
0
100
AcDbEllipse
10
5.9971737130483458
20
5.2688919982281055
30
0
11
0.61958591478735225
21
-0.74373200428455322
31
0.0
40
0.99941943360284247
41
5.1258005595078124
42
5.501046348686593
0
ELLIPSE
5
111
100
AcDbEntity
8
0
100
AcDbEllipse
10
5.3423797818458292
20
3.9558150419303018
30
0
11
0.32003404689429638
21
-0.38415909312218488
31
0.0
40
0.9994194336028428
41
1.9842079059180107
42
2.0051862420175146
0
ELLIPSE
5
112
100
AcDbEntity
8
0
100
AcDbEllipse
10
5.9970723079051727
20
5.268756602032135
30
0
11
0.61958591478729541
21
-0.7437320042846004
31
0.0
40
0.99941943360284247
41
4.7854613553689918
42
5.1149965576225753
0
ELLIPSE
5
113
100
AcDbEntity
8
0
100
AcDbEllipse
10
4.9414433426904525
20
4.2498438096216846
30
0
11
0.32003404689418818
21
-0.38415909312227536
31
0.0
40
0.99941943360284236
41
1.6438687017794038
42
1.6609678939097656
0
ELLIPSE
5
114
100
AcDbEntity
8
0
100
AcDbEllipse
10
5.9969928647039286
20
5.2686793846143551
30
0
11
0.61958591478732039
21
-0.74373200428457897
31
0.0
40
0.99941943360284247
41
4.4451221512300618
42
4.7766290441716066
0
ELLIPSE
5
115
100
AcDbEntity
8
0
100
AcDbEllipse
10
4.6616274722862503
20
4.660817393050797
30
0
11
0.32003404689424558
21
-0.38415909312222735
31
0.0
40
0.99941943360284269
41
1.3035294976403613
42
1.3148195031689685
0
ELLIPSE
5
116
100
AcDbEntity
8
0
100
AcDbEllipse
10
5.9969444969317456
20
5.268669204126657
30
0
11
0.61958591478736502
21
-0.74373200428454223
31
0.0
40
0.99941943360284291
41
4.1047829470911079
42
4.4393017574363247
0
ELLIPSE
5
117
100
AcDbEntity
8
0
100
AcDbEllipse
10
4.5350318128234806
20
5.1415901283256371
30
0
11
0.32003404689422044
21
-0.38415909312224816
31
0.0
40
0.99941943360284236
41
0.9631902935015324
42
1.090746405957844
0
ELLIPSE
5
118
100
AcDbEntity
8
0
100
AcDbEllipse
10
5.0122606758546384
20
5.2200207149255649
30
0
11
0.019202042813653047
21
-0.02304954558733505
31
0.0
40
0.99941943360284247
41
2.0671849968362928
42
2.7216095148858295
0
LINE
5
119
100
AcDbEntity
8
0
100
AcDbLine
10
5.0041202528345696
20
5.2488921510292785
30
0
11
3.1958797471654319
21
5.2488921510292794
31
0
0
ELLIPSE
5
120
100
AcDbEntity
8
0
100
AcDbEllipse
10
3.1877393241453631
20
5.2200207149255649
30
0
11
-0.019202042813653047
21
-0.02304954558733505
31
0.0
40
0.99941943360284247
41
3.5615757922937497
42
4.2160003103432615
0
ELLIPSE
5
121
100
AcDbEntity
8
0
100
AcDbEllipse
10
3.664968187176521
20
5.1415901283256371
30
0
11
-0.32003404689422044
21
-0.38415909312224816
31
0.0
40
0.99941943360284236
41
5.1924389012217427
42
5.3199950136780538
0
ELLIPSE
5
122
100
AcDbEntity
8
0
100
AcDbEllipse
10
2.2030555030682564
20
5.268669204126657
30
0
11
-0.61958591478736502
21
-0.74373200428454223
31
0.0
40
0.99941943360284291
41
1.8438835497432606
42
2.1784023600884774
0
ELLIPSE
5
123
100
AcDbEntity
8
0
100
AcDbEllipse
10
3.5383725277137517
20
4.660817393050797
30
0
11
-0.32003404689424558
21
-0.38415909312222735
31
0.0
40
0.99941943360284269
41
4.9683658040106193
42
4.9796558095392243
0
ELLIPSE
5
124
100
AcDbEntity
8
0
100
AcDbEllipse
10
2.2030071352960734
20
5.2686793846143551
30
0
11
-0.61958591478732039
21
-0.74373200428457897
31
0.0
40
0.99941943360284258
41
1.5065562630079798
42
1.8380631559495235
0
ELLIPSE
5
125
100
AcDbEntity
8
0
100
AcDbEllipse
10
3.2585566573095499
20
4.2498438096216846
30
0
11
-0.32003404689418818
21
-0.38415909312227536
31
0.0
40
0.99941943360284213
41
4.6222174132698228
42
4.6393166054001833
0
ELLIPSE
5
126
100
AcDbEntity
8
0
100
AcDbEllipse
10
2.2029276920948289
20
5.268756602032135
30
0
11
-0.61958591478729541
21
-0.7437320042846004
31
0.0
40
0.99941943360284247
41
1.1681887495570127
42
1.497723951810594
0
ELLIPSE
5
127
100
AcDbEntity
8
0
100
AcDbEllipse
10
2.8576202181541723
20
3.9558150419303018
30
0
11
-0.32003404689429638
21
-0.38415909312218488
31
0.0
40
0.9994194336028428
41
4.2779990651620707
42
4.2989774012615714
0
ELLIPSE
5
128
100
AcDbEntity
8
0
100
AcDbEllipse
10
2.2028262869516566
20
5.2688919982281055
30
0
11
-0.61958591478735225
21
-0.74373200428455322
31
0.0
40
0.99941943360284247
41
0.78213895849299364
42
1.1573847476717753
0
ELLIPSE
5
129
100
AcDbEntity
8
0
100
AcDbEllipse
10
2.3307270738758836
20
3.8068992587282016
30
0
11
-0.32003404689428006
21
-0.38415909312219904
31
0.0
40
0.9994194336028428
41
3.9237316120827486
42
4.0512877245390619
0
ELLIPSE
5
130
100
AcDbEntity
8
0
100
AcDbEllipse
10
2.2520321160434165
20
4.2841331518203898
30
0
11
-0.019202042813658039
21
-0.023049545587330664
31
0.0
40
0.99941943360284302
41
5.0277263154175804
42
5.6821508334670927
0
LINE
5
131
100
AcDbEntity
8
0
100
AcDbLine
10
2.2231683532309576
20
4.2759753879700666
30
0
11
2.3832633392923044
21
3.7083533841685083
31
0
0
ELLIPSE
5
132
100
AcDbEntity
8
0
100
AcDbEllipse
10
2.4121271021047637
20
3.7165111480188329
30
0
11
-0.019202042813657755
21
-0.02304954558733114
31
0.0
40
0.99941943360284236
41
5.6821508334671025
42
7.1645319123429694
0
LINE
5
133
100
AcDbEntity
8
0
100
AcDbLine
10
2.4176870548522484
20
3.6870414187606473
30
0
11
2.5375984128803126
21
3.2618917810550987
31
0
0
LINE
5
134
100
AcDbEntity
8
0
100
AcDbLine
10
2.5375984128803126
20
3.2618917810550987
30
0
11
2.5876556815447991
21
3.2240000000000002
31
0
0
LINE
5
135
100
AcDbEntity
8
0
100
AcDbLine
10
2.5876556815447991
20
3.2240000000000002
30
0
11
3.475000000000001
21
3.2240000000000002
31
0
0
LINE
5
136
100
AcDbEntity
8
0
100
AcDbLine
10
3.475000000000001
20
3.2240000000000002
30
0
11
3.475000000000001
21
0.019685039370079017
31
0
0
LINE
5
137
100
AcDbEntity
8
0
100
AcDbLine
10
3.475000000000001
20
0.019685039370079017
30
0
11
3.4946850393700797
21
0
31
0
0
ENDSEC
0
SECTION
2
OBJECTS
0
DICTIONARY
5
C
100
AcDbDictionary
3
ACAD_GROUP
350
D
3
ACAD_MLINESTYLE
350
17
0
DICTIONARY
5
D
100
AcDbDictionary
0
DICTIONARY
5
1A
330
C
100
AcDbDictionary
0
DICTIONARY
5
17
100
AcDbDictionary
0
ENDSEC
0
EOF
