0
SECTION
2
HEADER
9
$INSUNITS
70
1
9
$ACADVER
1
AC1014
9
$HANDSEED
5
FFFF
0
ENDSEC
0
SECTION
2
TABLES
0
TABLE
2
VPORT
5
8
100
AcDbSymbolTable
0
ENDTAB
0
TABLE
2
LTYPE
5
5
100
AcDbSymbolTable
0
LTYPE
5
14
100
AcDbSymbolTableRecord
100
AcDbLinetypeTableRecord
2
BYBLOCK
70
0
0
LTYPE
5
15
100
AcDbSymbolTableRecord
100
AcDbLinetypeTableRecord
2
BYLAYER
70
0
0
LTYPE
5
16
100
AcDbSymbolTableRecord
100
AcDbLinetypeTableRecord
2
DASHED
70
0
3
Dashed __ __ __ __ __ __ __ __ __ __ __ __ __ _
72
65
73
2
40
0.75
49
0.5
74
0
49
-0.25
74
0
0
ENDTAB
0
TABLE
2
LAYER
5
2
100
AcDbSymbolTable
70
2
0
LAYER
5
50
100
AcDbSymbolTableRecord
100
AcDbLayerTableRecord
2
0
70
0
62
7
6
CONTINUOUS
0
ENDTAB
0
TABLE
2
STYLE
5
3
100
AcDbSymbolTable
70
1
0
STYLE
5
11
100
AcDbSymbolTableRecord
100
AcDbTextStyleTableRecord
2
STANDARD
70
0
0
ENDTAB
0
TABLE
2
VIEW
5
6
100
AcDbSymbolTable
70
0
0
ENDTAB
0
TABLE
2
UCS
5
7
100
AcDbSymbolTable
70
0
0
ENDTAB
0
TABLE
2
APPID
5
9
100
AcDbSymbolTable
70
2
0
APPID
5
12
100
AcDbSymbolTableRecord
100
AcDbRegAppTableRecord
2
ACAD
70
0
0
ENDTAB
0
TABLE
2
DIMSTYLE
5
A
100
AcDbSymbolTable
70
1
0
ENDTAB
0
TABLE
2
BLOCK_RECORD
5
1
100
AcDbSymbolTable
70
1
0
BLOCK_RECORD
5
1F
100
AcDbSymbolTableRecord
100
AcDbBlockTableRecord
2
*MODEL_SPACE
0
BLOCK_RECORD
5
1B
100
AcDbSymbolTableRecord
100
AcDbBlockTableRecord
2
*PAPER_SPACE
0
ENDTAB
0
ENDSEC
0
SECTION
2
BLOCKS
0
BLOCK
5
20
100
AcDbEntity
100
AcDbBlockBegin
2
*MODEL_SPACE
0
ENDBLK
5
21
100
AcDbEntity
100
AcDbBlockEnd
0
BLOCK
5
1C
100
AcDbEntity
100
AcDbBlockBegin
2
*PAPER_SPACE
0
ENDBLK
5
1D
100
AcDbEntity
100
AcDbBlockEnd
0
ENDSEC
0
SECTION
2
ENTITIES
0
ELLIPSE
5
100
100
AcDbEntity
8
0
100
AcDbEllipse
10
-0.59763646807816806
20
-4.4102831480679017
30
0
11
-0.094868863016408442
21
0.075908819184426449
31
0.0
40
0.99960975848072864
41
0
42
6.2831853071795862
0
ELLIPSE
5
101
100
AcDbEntity
8
0
100
AcDbEllipse
10
-1.1646497345680291
20
-4.9770319247778776
30
0
11
-0.43881729230634936
21
0.35111733647447513
31
0.0
40
0.99960975848072853
41
4.3441935297621335
42
4.8590656591004544
0
ELLIPSE
5
102
100
AcDbEntity
8
0
100
AcDbEllipse
10
-0.78687679719646664
20
-4.3294533214355555
30
0
11
-0.14679297322704882
21
0.11745562145408964
31
0.0
40
0.99960975848072853
41
1.5163596439588232
42
1.7174730055105922
0
ELLIPSE
5
103
100
AcDbEntity
8
0
100
AcDbEllipse
10
-0.88220359995119513
20
-4.4720319100592336
30
0
11
-0.023424410621337651
21
0.018742918317139513
31
0.0
40
0.99960975848072875
41
6.1724259212260755
42
6.8763942877957609
0
LINE
5
104
100
AcDbEntity
8
0
100
AcDbLine
10
-0.90341357251315968
20
-4.4508156784532744
30
0
11
-0.57465899780270657
21
-4.1222144550491135
31
0
0
ELLIPSE
5
105
100
AcDbEntity
8
0
100
AcDbEllipse
10
-0.55344902524074169
20
-4.1434306866550727
30
0
11
-0.0234244106213344
21
0.018742918317143611
31
0.0
40
0.99960975848072875
41
4.6016295944313219
42
6.1724259212262487
0
LINE
5
106
100
AcDbEntity
8
0
100
AcDbLine
10
-0.5322390526787768
20
-4.122230607725772
30
0
11
-0.30953434077814729
21
-4.3450010395883538
31
0
0
ELLIPSE
5
107
100
AcDbEntity
8
0
100
AcDbEllipse
10
-0.33074431334011184
20
-4.3662011185176546
30
0
11
0.023424410621337509
21
-0.018742918317139725
31
0.0
40
0.99960975848072875
41
6.172425921226063
42
7.743222248020972
0
LINE
5
108
100
AcDbEntity
8
0
100
AcDbLine
10
-0.30953434077814707
20
-4.3874173501236138
30
0
11
-0.63828891548860056
21
-4.7160185735277755
31
0
0
ELLIPSE
5
109
100
AcDbEntity
8
0
100
AcDbEllipse
10
-0.65949888805056545
20
-4.6948023419218146
30
0
11
0.0234244106213344
21
-0.018742918317143611
31
0.0
40
0.99960975848072875
41
5.4684575546566077
42
6.1724259212262229
0
ELLIPSE
5
110
100
AcDbEntity
8
0
100
AcDbEllipse
10
-0.51687178041334614
20
-4.5995380164584017
30
0
11
-0.14679297322705406
21
0.11745562145411888
31
0.0
40
0.99960975848072864
41
1.2026008761723854
42
1.40371423772418
0
ELLIPSE
5
111
100
AcDbEntity
8
0
100
AcDbEllipse
10
-0.39577188012997716
20
-4.7496013157465589
30
0
11
-0.094868863016388347
21
0.07590881918445154
31
0.0
40
0.99960975848072864
41
0
42
6.2831853071795862
0
ELLIPSE
5
112
100
AcDbEntity
8
0
100
AcDbEllipse
10
-1.1646281891166799
20
-4.9770346513686716
30
0
11
-0.43881729230637861
21
0.35111733647443877
31
0.0
40
0.99960975848072853
41
3.8467746929436659
42
4.3616468222819869
0
ELLIPSE
5
113
100
AcDbEntity
8
0
100
AcDbEllipse
10
-0.52354194152602762
20
-4.5882914112104132
30
0
11
-0.14679297322704618
21
0.11745562145409294
31
0.0
40
0.99960975848072875
41
1.0189408071404613
42
1.220054168692235
0
ELLIPSE
5
114
100
AcDbEntity
8
0
100
AcDbEllipse
10
-0.67537254094181587
20
-4.6680838787699255
30
0
11
-0.023424410621336919
21
0.018742918317140429
31
0.0
40
0.99960975848072864
41
5.6750070844077039
42
6.3789754509773555
0
LINE
5
115
100
AcDbEntity
8
0
100
AcDbLine
10
-0.68389170357555362
20
-4.6393228879890973
30
0
11
-0.23810843215558597
21
-4.5074569265623126
31
0
0
ELLIPSE
5
116
100
AcDbEntity
8
0
100
AcDbEllipse
10
-0.2295892695218478
20
-4.5362179173431416
30
0
11
0.023424410621335212
21
-0.018742918317142608
31
0.0
40
0.99960975848072864
41
0.96261810402310077
42
2.5334144308179938
0
LINE
5
117
100
AcDbEntity
8
0
100
AcDbLine
10
-0.20082905846249502
20
-4.5277104359607687
30
0
11
-0.11137785080824704
21
-4.8297008391594654
31
0
0
ELLIPSE
5
118
100
AcDbEntity
8
0
100
AcDbEllipse
10
-0.14013806186759975
20
-4.8382083205418382
30
0
11
0.023424410621336839
21
-0.018742918317140572
31
0.0
40
0.99960975848072864
41
5.6750070844077278
42
7.245803411202588
0
LINE
5
119
100
AcDbEntity
8
0
100
AcDbLine
10
-0.13161889923386161
20
-4.8669693113226664
30
0
11
-0.57740217065382948
21
-4.9988352727494512
31
0
0
ELLIPSE
5
120
100
AcDbEntity
8
0
100
AcDbEllipse
10
-0.58592133328756746
20
-4.9700742819686221
30
0
11
-0.023424410621335212
21
0.018742918317142608
31
0.0
40
0.99960975848072864
41
1.8294460642483834
42
2.5334144308180053
0
ELLIPSE
5
121
100
AcDbEntity
8
0
100
AcDbEllipse
10
-0.41509217134453436
20
-4.9544216254664191
30
0
11
-0.14679297322707846
21
0.11745562145408849
31
0.0
40
0.99960975848072864
41
0.70518203935379964
42
0.90629540090558491
0
ELLIPSE
5
122
100
AcDbEntity
8
0
100
AcDbEllipse
10
-0.93694033480721917
20
-4.2083850761465458
30
0
11
-0.09486886301640092
21
0.075908819184435802
31
0.0
40
0.99960975848072886
41
0
42
6.2831853071795862
0
ELLIPSE
5
123
100
AcDbEntity
8
0
100
AcDbEllipse
10
-1.1646859492158157
20
-4.9770887876303584
30
0
11
-0.43881729230637856
21
0.35111733647443899
31
0.0
40
0.99960975848072886
41
4.841612366580434
42
5.3564844959187567
0
ELLIPSE
5
124
100
AcDbEntity
8
0
100
AcDbEllipse
10
-1.1417855526810552
20
-4.2276257109666817
30
0
11
-0.14679297322699081
21
0.11745562145416213
31
0.0
40
0.99960975848072864
41
2.0137784807777006
42
2.2148918423294686
0
ELLIPSE
5
125
100
AcDbEntity
8
0
100
AcDbEllipse
10
-1.1575046043776813
20
-4.3984342505705269
30
0
11
-0.023424410621336132
21
0.018742918317141411
31
0.0
40
0.99960975848072864
41
0.3866594508649181
42
1.0906278174346427
0
LINE
5
126
100
AcDbEntity
8
0
100
AcDbLine
10
-1.1862648154370339
20
-4.3899048665483207
30
0
11
-1.054217794614096
21
-3.944210071236637
31
0
0
ELLIPSE
5
127
100
AcDbEntity
8
0
100
AcDbEllipse
10
-1.025457583554743
20
-3.9527394552588428
30
0
11
-0.023424410621331812
21
0.018742918317146844
31
0.0
40
0.99960975848072897
41
5.0990484312498667
42
6.6698447580447811
0
LINE
5
128
100
AcDbEntity
8
0
100
AcDbLine
10
-1.0169384209210053
20
-3.9239849523355086
30
0
11
-0.71495620479780098
21
-4.0135434845686762
31
0
0
ELLIPSE
5
129
100
AcDbEntity
8
0
100
AcDbEllipse
10
-0.72347536743153951
20
-4.0422979874920113
30
0
11
0.023424410621336249
21
-0.0187429183171413
31
0.0
40
0.99960975848072875
41
0.38665945086492343
42
1.9574557776598147
0
LINE
5
130
100
AcDbEntity
8
0
100
AcDbLine
10
-0.69471515637218684
20
-4.0508273715142176
30
0
11
-0.8267621771951249
21
-4.4965221668259012
31
0
0
ELLIPSE
5
131
100
AcDbEntity
8
0
100
AcDbEllipse
10
-0.85552238825447768
20
-4.4879927828036941
30
0
11
0.023424410621331812
21
-0.018742918317146844
31
0.0
40
0.99960975848072897
41
5.9658763914751134
42
6.669844758044726
0
ELLIPSE
5
132
100
AcDbEntity
8
0
100
AcDbEllipse
10
-0.77566526435537397
20
-4.3362056004190048
30
0
11
-0.14679297322705173
21
0.11745562145412179
31
0.0
40
0.99960975848072875
41
1.7000197129907881
42
1.9011330745425825
0
LINE
5
133
100
AcDbEntity
8
0
100
AcDbLine
10
0.62499999999999989
20
-3.2500049985059563
30
0
11
-0.62499999999999989
21
-3.2500049985059563
31
0
0
LINE
5
134
100
AcDbEntity
8
0
100
AcDbLine
10
0.62499999999999989
20
-0.039370078740157334
30
0
11
-0.62499999999999989
21
-0.039370078740157334
31
0
0
ENDSEC
0
SECTION
2
OBJECTS
0
DICTIONARY
5
C
100
AcDbDictionary
3
ACAD_GROUP
350
D
3
ACAD_MLINESTYLE
350
17
0
DICTIONARY
5
D
100
AcDbDictionary
0
DICTIONARY
5
1A
330
C
100
AcDbDictionary
0
DICTIONARY
5
17
100
AcDbDictionary
0
ENDSEC
0
EOF
