0
SECTION
2
HEADER
9
$INSUNITS
70
1
9
$ACADVER
1
AC1014
9
$HANDSEED
5
FFFF
0
ENDSEC
0
SECTION
2
TABLES
0
TABLE
2
VPORT
5
8
100
AcDbSymbolTable
0
ENDTAB
0
TABLE
2
LTYPE
5
5
100
AcDbSymbolTable
0
LTYPE
5
14
100
AcDbSymbolTableRecord
100
AcDbLinetypeTableRecord
2
BYBLOCK
70
0
0
LTYPE
5
15
100
AcDbSymbolTableRecord
100
AcDbLinetypeTableRecord
2
BYLAYER
70
0
0
LTYPE
5
16
100
AcDbSymbolTableRecord
100
AcDbLinetypeTableRecord
2
DASHED
70
0
3
Dashed __ __ __ __ __ __ __ __ __ __ __ __ __ _
72
65
73
2
40
0.75
49
0.5
74
0
49
-0.25
74
0
0
ENDTAB
0
TABLE
2
LAYER
5
2
100
AcDbSymbolTable
70
2
0
LAYER
5
50
100
AcDbSymbolTableRecord
100
AcDbLayerTableRecord
2
0
70
0
62
7
6
CONTINUOUS
0
ENDTAB
0
TABLE
2
STYLE
5
3
100
AcDbSymbolTable
70
1
0
STYLE
5
11
100
AcDbSymbolTableRecord
100
AcDbTextStyleTableRecord
2
STANDARD
70
0
0
ENDTAB
0
TABLE
2
VIEW
5
6
100
AcDbSymbolTable
70
0
0
ENDTAB
0
TABLE
2
UCS
5
7
100
AcDbSymbolTable
70
0
0
ENDTAB
0
TABLE
2
APPID
5
9
100
AcDbSymbolTable
70
2
0
APPID
5
12
100
AcDbSymbolTableRecord
100
AcDbRegAppTableRecord
2
ACAD
70
0
0
ENDTAB
0
TABLE
2
DIMSTYLE
5
A
100
AcDbSymbolTable
70
1
0
ENDTAB
0
TABLE
2
BLOCK_RECORD
5
1
100
AcDbSymbolTable
70
1
0
BLOCK_RECORD
5
1F
100
AcDbSymbolTableRecord
100
AcDbBlockTableRecord
2
*MODEL_SPACE
0
BLOCK_RECORD
5
1B
100
AcDbSymbolTableRecord
100
AcDbBlockTableRecord
2
*PAPER_SPACE
0
ENDTAB
0
ENDSEC
0
SECTION
2
BLOCKS
0
BLOCK
5
20
100
AcDbEntity
100
AcDbBlockBegin
2
*MODEL_SPACE
0
ENDBLK
5
21
100
AcDbEntity
100
AcDbBlockEnd
0
BLOCK
5
1C
100
AcDbEntity
100
AcDbBlockBegin
2
*PAPER_SPACE
0
ENDBLK
5
1D
100
AcDbEntity
100
AcDbBlockEnd
0
ENDSEC
0
SECTION
2
ENTITIES
0
POINT
5
100
100
AcDbEntity
8
0
100
AcDbPoint
10
0
20
0
30
0
0
LINE
5
101
100
AcDbEntity
8
0
100
AcDbLine
10
-0.62499999999999989
20
-1.7499999999999993
30
0
11
0.62499999999999989
21
-1.7499999999999993
31
0
0
LINE
5
102
100
AcDbEntity
8
0
100
AcDbLine
10
-0.62499999999999989
20
-4.9606299212598417
30
0
11
0.62499999999999989
21
-4.9606299212598417
31
0
0
SPLINE
5
103
100
AcDbEntity
8
0
100
AcDbSpline
70
0
71
3
72
16
73
12
74
0
42
0.000000001
43
0.0000000001
44
0.0000000001
40
0.009476188156738485
40
0.009476188156738485
40
0.009476188156738485
40
0.009476188156738485
40
0.010126130544184511
40
0.010126130544184511
40
0.01984075967263061
40
0.01984075967263061
40
0.029390550549108697
40
0.029390550549108697
40
0.035996786201364067
40
0.035996786201364067
40
0.042664650393579612
40
0.042664650393579612
40
0.042664650393579612
40
0.042664650393579612
10
-0.68709120528366341
20
0.053636771463151441
30
0
10
-0.68704897145879762
20
0.053710681657683654
30
0
10
-0.68700575419529919
20
0.05378408895999294
30
0
10
-0.68630094581764223
20
0.054946367586627652
30
0
10
-0.68543608291414182
20
0.055894708216375863
30
0
10
-0.68339954113697132
20
0.05738814182071203
30
0
10
-0.68225721229432312
20
0.057922221091940916
30
0
10
-0.68020200135950948
20
0.058434076034734578
30
0
10
-0.67933800353905771
20
0.058529846141338916
30
0
10
-0.67759801547360865
20
0.058494928588969153
30
0
10
-0.67673027410370168
20
0.058362315206453443
30
0
10
-0.67588978826987767
20
0.058121309771808724
30
0
0
ELLIPSE
5
104
100
AcDbEntity
8
0
100
AcDbEllipse
10
-0.193598542100056
20
-0.025724023654996792
30
0
11
-0.13781923154330555
21
-0.48063277872331989
31
0.0
40
0.99965732497555726
41
4.8321516302192107
42
4.9698247380242977
0
ELLIPSE
5
105
100
AcDbEntity
8
0
100
AcDbEllipse
10
-1.3804396808023782
20
7.2881526966076334e-05
30
0
11
-0.18950068212401155
21
-0.66086741595763387
31
0.0
40
0.99965732497555726
41
1.5707963267947278
42
1.8282323914638039
0
ELLIPSE
5
106
100
AcDbEntity
8
0
100
AcDbEllipse
10
-1.3804396808023782
20
7.2881526966076334e-05
30
0
11
-0.18950068212412308
21
-0.66086741595760201
31
0.0
40
0.99965732497555704
41
1.3133602621256371
42
1.5707963267948966
0
ELLIPSE
5
107
100
AcDbEntity
8
0
100
AcDbEllipse
10
-0.36027283968232654
20
-0.60697919028471969
30
0
11
-0.13781867790843438
21
-0.48063084796915373
31
0.0
40
0.99965732497555737
41
4.4549529157154009
42
4.5926265831922013
0
SPLINE
5
108
100
AcDbEntity
8
0
100
AcDbSpline
70
0
71
3
72
14
73
10
74
0
42
0.000000001
43
0.0000000001
44
0.0000000001
40
0
40
0
40
0
40
0
40
0.010119179250104351
40
0.010119179250104351
40
0.019829618249873126
40
0.019829618249873126
40
0.029381249559691729
40
0.029381249559691729
40
0.033206687325481009
40
0.033206687325481009
40
0.033206687325481009
40
0.033206687325481009
10
-0.81370846906589867
20
-0.42250953736936797
30
0
10
-0.81498456436065148
20
-0.42214362293180901
30
0
10
-0.8161767957073387
20
-0.42153387664164071
30
0
10
-0.81820666347875326
20
-0.41990933468768576
30
0
10
-0.81903441059019255
20
-0.41892945700931222
30
0
10
-0.82025114852583803
20
-0.4167168923719346
30
0
10
-0.82063274660223318
20
-0.41551460015625652
30
0
10
-0.82083264198447425
20
-0.41377195121173627
30
0
10
-0.82085106172005717
20
-0.4132706618662958
30
0
10
-0.82083136627155251
20
-0.4127705890753347
30
0
0
LINE
5
109
100
AcDbEntity
8
0
100
AcDbLine
10
-0.81370846906589867
20
-0.42250953736936797
30
0
11
-0.21101120659564132
21
-0.59533019639217921
31
0
0
ELLIPSE
5
110
100
AcDbEntity
8
0
100
AcDbEllipse
10
-0.20855964792874351
20
-0.58543546549718228
30
0
11
0.0049843410152172361
21
-0.0090926564873975435
31
0.0
40
0.96422965100544455
41
5.5206987820434836
42
7.0550789878802069
0
LINE
5
111
100
AcDbEntity
8
0
100
AcDbLine
10
-0.19887270275543001
20
-0.58859899430670537
30
0
11
-0.06646548727180214
21
-0.12684015856034628
31
0
0
ELLIPSE
5
112
100
AcDbEntity
8
0
100
AcDbEllipse
10
-0.076356897542725538
20
-0.12438968428548855
30
0
11
0.0090453347442763319
21
0.0050697116996705951
31
0.0
40
0.96422965100544478
41
5.5112916264789638
42
7.045671832315719
0
LINE
5
113
100
AcDbEntity
8
0
100
AcDbLine
10
-0.073192528687141975
20
-0.11469934842301896
30
0
11
-0.67588978826987767
21
0.058121309771808724
31
0
0
ELLIPSE
5
114
100
AcDbEntity
8
0
100
AcDbEllipse
10
-0.43295368463804218
20
-0.27161435594424499
30
0
11
-0.041341741343612771
21
-0.1441757858952501
31
0.0
40
0.99965732497555715
41
0
42
6.2831853071795862
0
SPLINE
5
115
100
AcDbEntity
8
0
100
AcDbSpline
70
0
71
3
72
16
73
12
74
0
42
0.000000001
43
0.0000000001
44
0.0000000001
40
0.009476188156738485
40
0.009476188156738485
40
0.009476188156738485
40
0.009476188156738485
40
0.010126130544184511
40
0.010126130544184511
40
0.01984075967263061
40
0.01984075967263061
40
0.029390550549108697
40
0.029390550549108697
40
0.035996786201364067
40
0.035996786201364067
40
0.042664650393579612
40
0.042664650393579612
40
0.042664650393579612
40
0.042664650393579612
10
-0.74798794972479588
20
-0.28910701063038002
30
0
10
-0.74791517881591674
20
-0.2890628426822785
30
0
10
-0.7478417915792166
20
-0.28901959135413552
30
0
10
-0.7466618684227615
20
-0.28834473744401223
30
0
10
-0.74544567762281388
20
-0.28793459389596465
30
0
10
-0.74294044707150653
20
-0.28761574247991384
30
0
10
-0.7416824169850269
20
-0.28770243823652303
30
0
10
-0.73963673679867348
20
-0.28825114584919215
30
0
10
-0.73883463700896701
20
-0.28858625788182807
30
0
10
-0.73732973752204223
20
-0.2894603604144993
30
0
10
-0.73663508606283856
20
-0.28999703605629457
30
0
10
-0.73601682234225196
20
-0.29061529977688111
30
0
0
ELLIPSE
5
116
100
AcDbEntity
8
0
100
AcDbEllipse
10
-0.35484441811938505
20
-0.59776751664736272
30
0
11
-0.3535548108613677
21
-0.35355481086144125
31
0.0
40
0.99965732497555726
41
4.8321516302191849
42
4.9698247380242719
0
ELLIPSE
5
117
100
AcDbEntity
8
0
100
AcDbEllipse
10
-1.3803724794673993
20
0.00018696675499165087
30
0
11
-0.48613591206571616
21
-0.48613591206577228
31
0.0
40
0.99965732497555715
41
1.5707963267949321
42
1.8282323914640073
0
ELLIPSE
5
118
100
AcDbEntity
8
0
100
AcDbEllipse
10
-1.3803724794673993
20
0.00018696675499165087
30
0
11
-0.48613591206569912
21
-0.48613591206578921
31
0.0
40
0.99965732497555726
41
1.3133602621256371
42
1.5707963267948972
0
ELLIPSE
5
119
100
AcDbEntity
8
0
100
AcDbEllipse
10
-0.78241914005843261
20
-1.0253394373426259
30
0
11
-0.35355339059327989
21
-0.3535533905932346
31
0.0
40
0.99965732497555737
41
4.4549529157155865
42
4.5926265831923878
0
SPLINE
5
120
100
AcDbEntity
8
0
100
AcDbSpline
70
0
71
3
72
14
73
10
74
0
42
0.000000001
43
0.0000000001
44
0.0000000001
40
0
40
0
40
0
40
0
40
0.010119179250104351
40
0.010119179250104351
40
0.019829618249873126
40
0.019829618249873126
40
0.029381249559691729
40
0.029381249559691729
40
0.033206687325481009
40
0.033206687325481009
40
0.033206687325481009
40
0.033206687325481009
10
-1.0895702150595945
20
-0.64416868824608686
30
0
10
-1.090508914313058
20
-0.64322998899262374
30
0
10
-1.091256052476957
20
-0.64211868764445401
30
0
10
-1.0922438212649519
20
-0.63971373181304059
30
0
10
-1.0924927310760044
20
-0.63845541172219222
30
0
10
-1.0924842414313261
20
-0.63593037283050247
30
0
10
-1.09223511179664
20
-0.63469382194642621
30
0
10
-1.0915650912642987
20
-0.63307275563256982
30
0
10
-1.0913381716308435
20
-0.63262538802705548
30
0
10
-1.0910785055035588
20
-0.63219756305198682
30
0
0
LINE
5
121
100
AcDbEntity
8
0
100
AcDbLine
10
-1.0895702150595945
20
-0.64416868824608686
30
0
11
-0.64622442993571383
21
-1.0875144733699675
31
0
0
ELLIPSE
5
122
100
AcDbEntity
8
0
100
AcDbEllipse
10
-0.63928318768479298
20
-1.0800488859586728
30
0
11
-4.8804459673437202e-05
21
-0.010369073028892478
31
0.0
40
0.96422965100544455
41
5.5206987820434428
42
7.0550789878802025
0
LINE
5
123
100
AcDbEntity
8
0
100
AcDbLine
10
-0.63234450373501727
20
-1.087512094810406
30
0
11
-0.29267341790200108
21
-0.74784100897738959
31
0
0
ELLIPSE
5
124
100
AcDbEntity
8
0
100
AcDbEllipse
10
-0.30013662675373443
20
-0.74090232502761388
30
0
11
0.010369073028892478
21
4.8804459673453587e-05
31
0.0
40
0.96422965100544444
41
5.5112916264789806
42
7.0456718323157199
0
LINE
5
125
100
AcDbEntity
8
0
100
AcDbLine
10
-0.29267103934243949
20
-0.73396108277669314
30
0
11
-0.73601682234225208
21
-0.29061529977688111
31
0
0
ELLIPSE
5
126
100
AcDbEntity
8
0
100
AcDbEllipse
10
-0.68339914140766334
20
-0.69678637130474474
30
0
11
-0.10605610971517664
21
-0.10605610971517668
31
0.0
40
0.99965732497555726
41
0
42
6.2831853071795862
0
SPLINE
5
127
100
AcDbEntity
8
0
100
AcDbSpline
70
0
71
3
72
16
73
12
74
0
42
0.000000001
43
0.0000000001
44
0.0000000001
40
0.009476188156738485
40
0.009476188156738485
40
0.009476188156738485
40
0.009476188156738485
40
0.010126130544184511
40
0.010126130544184511
40
0.01984075967263061
40
0.01984075967263061
40
0.029390550549108697
40
0.029390550549108697
40
0.035996786201364067
40
0.035996786201364067
40
0.042664650393579612
40
0.042664650393579612
40
0.042664650393579612
40
0.042664650393579612
10
-0.96741492535220019
20
-0.55935414940212969
30
0
10
-0.96732986543504174
20
-0.55935079928099485
30
0
10
-0.96724471085159924
20
-0.5593485496553966
30
0
10
-0.96588555113816488
20
-0.55933034722356345
30
0
10
-0.96462300515911359
20
-0.55956124859355461
30
0
10
-0.96227729891408198
20
-0.56049693473363615
30
0
10
-0.96121903194511105
20
-0.56118266563937669
30
0
10
-0.95969585846894634
20
-0.56265434156516603
30
0
10
-0.9591567917230589
20
-0.56333630284745606
30
0
10
-0.95826435029145118
20
-0.56483039989735573
30
0
10
-0.95791697994973257
20
-0.56563656070015156
30
0
10
-0.9576759745150879
20
-0.56647704653397568
30
0
0
ELLIPSE
5
128
100
AcDbEntity
8
0
100
AcDbEllipse
10
-0.77320542758286359
20
-1.0199144770401236
30
0
11
-0.48063277872330135
21
-0.13781923154337011
31
0.0
40
0.99965732497555759
41
4.8321516302192329
42
4.969824738024319
0
ELLIPSE
5
129
100
AcDbEntity
8
0
100
AcDbEllipse
10
-1.380258394239406
20
0.00025416809002517285
30
0
11
-0.66086741595761844
21
-0.18950068212406532
31
0.0
40
0.99965732497555726
41
1.5707963267951683
42
1.8282323914642451
0
ELLIPSE
5
130
100
AcDbEntity
8
0
100
AcDbEllipse
10
-1.380258394239406
20
0.00025416809002517285
30
0
11
-0.6608674159575666
21
-0.18950068212424506
31
0.0
40
0.99965732497555737
41
1.3133602621256371
42
1.5707963267948961
0
ELLIPSE
5
131
100
AcDbEntity
8
0
100
AcDbEllipse
10
-1.3544616861656693
20
-1.1865849665294415
30
0
11
-0.48063084796913169
21
-0.13781867790851221
31
0.0
40
0.99965732497555704
41
4.4549529157154835
42
4.5926265831922839
0
SPLINE
5
132
100
AcDbEntity
8
0
100
AcDbSpline
70
0
71
3
72
14
73
10
74
0
42
0.000000001
43
0.0000000001
44
0.0000000001
40
0
40
0
40
0
40
0
40
0.010119179250104351
40
0.010119179250104351
40
0.019829618249873126
40
0.019829618249873126
40
0.029381249559691729
40
0.029381249559691729
40
0.033206687325481009
40
0.033206687325481009
40
0.033206687325481009
40
0.033206687325481009
10
-1.4383068233122314
20
-0.70429572155495435
30
0
10
-1.4386727377497903
20
-0.70301962626020142
30
0
10
-1.4387874299273069
20
-0.70168544043101022
30
0
10
-1.438485406252048
20
-0.69910313885505704
30
0
10
-1.4380930619927021
20
-0.69788191343473982
30
0
10
-1.4368614736359726
20
-0.69567758052018691
30
0
10
-1.4360440881833194
20
-0.69471684919167753
30
0
10
-1.4346721664775308
20
-0.69362386504684059
30
0
10
-1.4342568099752342
20
-0.69334260134404402
30
0
10
-1.4338222871993396
20
-0.69309430582620202
30
0
0
LINE
5
133
100
AcDbEntity
8
0
100
AcDbLine
10
-1.4383068233122314
20
-0.70429572155495435
30
0
11
-1.2654861642894202
21
-1.3069929840252115
31
0
0
ELLIPSE
5
134
100
AcDbEntity
8
0
100
AcDbEllipse
10
-1.2557958284269504
20
-1.3038286151696277
30
0
11
-0.0050697116996705803
21
-0.0090453347442763388
31
0.0
40
0.96422965100544478
41
5.5206987820434472
42
7.0550789878801874
0
LINE
5
135
100
AcDbEntity
8
0
100
AcDbLine
10
-1.2533453541520927
20
-1.313720025440551
30
0
11
-0.79158651840573391
21
-1.181312809956923
31
0
0
ELLIPSE
5
136
100
AcDbEntity
8
0
100
AcDbEllipse
10
-0.79475004721525677
20
-1.1716258647836097
30
0
11
0.0090926564873975643
21
-0.0049843410152172049
31
0.0
40
0.96422965100544478
41
5.5112916264789531
42
7.0456718323157173
0
LINE
5
137
100
AcDbEntity
8
0
100
AcDbLine
10
-0.78485531632025973
20
-1.1691743061167117
30
0
11
-0.9576759745150879
21
-0.56647704653397568
31
0
0
ELLIPSE
5
138
100
AcDbEntity
8
0
100
AcDbEllipse
10
-1.1085711567681953
20
-0.94723182807431117
30
0
11
-0.14417578589525015
21
-0.041341741343612785
31
0.0
40
0.99965732497555682
41
0
42
6.2831853071795862
0
LINE
5
139
100
AcDbEntity
8
0
100
AcDbLine
10
0.62499999999999989
20
-4.9606299212598417
30
0
11
0.62499999999999989
21
-1.7499999999999993
31
0
0
LINE
5
140
100
AcDbEntity
8
0
100
AcDbLine
10
-0.62499999999999989
20
-1.7499999999999993
30
0
11
-0.62499999999999989
21
-4.9606299212598417
31
0
0
LINE
5
141
100
AcDbEntity
8
0
100
AcDbLine
10
-0.62499999999999989
20
-1.7499999999999993
30
0
11
-1.2533453541520927
21
-1.313720025440551
31
0
6
DASHED
0
ELLIPSE
5
142
100
AcDbEntity
8
0
100
AcDbEllipse
10
1.3803724794673993
20
0.00018696675499181546
30
0
11
0.48613591206569912
21
-0.48613591206578921
31
0.0
40
0.99965732497555726
41
4.7123889803846897
42
4.9698250450539492
0
ELLIPSE
5
143
100
AcDbEntity
8
0
100
AcDbEllipse
10
1.2557958284269504
20
-1.3038286151696277
30
0
11
0.0050697116996705812
21
-0.0090453347442763388
31
0.0
40
0.96422965100544489
41
5.5112916264789851
42
7.0456718323157252
0
ELLIPSE
5
144
100
AcDbEntity
8
0
100
AcDbEllipse
10
1.380258394239406
20
0.00025416809002533266
30
0
11
0.66086741595761844
21
-0.18950068212406532
31
0.0
40
0.99965732497555726
41
4.4549529157153414
42
4.7123889803844179
0
ELLIPSE
5
145
100
AcDbEntity
8
0
100
AcDbEllipse
10
1.3803724794673993
20
0.00018696675499181546
30
0
11
0.48613591206571616
21
-0.48613591206577228
31
0.0
40
0.99965732497555715
41
4.4549529157155794
42
4.7123889803846541
0
ELLIPSE
5
146
100
AcDbEntity
8
0
100
AcDbEllipse
10
0.35484441811938505
20
-0.59776751664736272
30
0
11
0.3535548108613677
21
-0.35355481086144125
31
0.0
40
0.99965732497555726
41
1.3133605691553143
42
1.4510336769604009
0
ELLIPSE
5
147
100
AcDbEntity
8
0
100
AcDbEllipse
10
1.3804396808023782
20
7.2881526966076334e-05
30
0
11
0.18950068212412308
21
-0.66086741595760212
31
0.0
40
0.99965732497555682
41
4.7123889803846897
42
4.9698250450539492
0
ELLIPSE
5
148
100
AcDbEntity
8
0
100
AcDbEllipse
10
1.380258394239406
20
0.00025416809002533266
30
0
11
0.6608674159575666
21
-0.18950068212424506
31
0.0
40
0.99965732497555748
41
4.7123889803846906
42
4.9698250450539501
0
SPLINE
5
149
100
AcDbEntity
8
0
100
AcDbSpline
70
0
71
3
72
14
73
10
74
0
42
0.000000001
43
0.0000000001
44
0.0000000001
40
0
40
0
40
0
40
0
40
0.010119179250104351
40
0.010119179250104351
40
0.019829618249873126
40
0.019829618249873126
40
0.029381249559691729
40
0.029381249559691729
40
0.033206687325481009
40
0.033206687325481009
40
0.033206687325481009
40
0.033206687325481009
10
1.4383068233122314
20
-0.70429572155495435
30
0
10
1.4386727377497903
20
-0.70301962626020142
30
0
10
1.4387874299273069
20
-0.70168544043101022
30
0
10
1.438485406252048
20
-0.69910313885505704
30
0
10
1.4380930619927021
20
-0.69788191343473982
30
0
10
1.4368614736359726
20
-0.69567758052018691
30
0
10
1.4360440881833194
20
-0.69471684919167753
30
0
10
1.4346721664775308
20
-0.69362386504684059
30
0
10
1.4342568099752342
20
-0.69334260134404402
30
0
10
1.4338222871993396
20
-0.69309430582620202
30
0
0
SPLINE
5
150
100
AcDbEntity
8
0
100
AcDbSpline
70
0
71
3
72
16
73
12
74
0
42
0.000000001
43
0.0000000001
44
0.0000000001
40
0.009476188156738485
40
0.009476188156738485
40
0.009476188156738485
40
0.009476188156738485
40
0.010126130544184511
40
0.010126130544184511
40
0.01984075967263061
40
0.01984075967263061
40
0.029390550549108697
40
0.029390550549108697
40
0.035996786201364067
40
0.035996786201364067
40
0.042664650393579612
40
0.042664650393579612
40
0.042664650393579612
40
0.042664650393579612
10
0.68709120528366341
20
0.053636771463151441
30
0
10
0.68704897145879762
20
0.053710681657683654
30
0
10
0.68700575419529919
20
0.05378408895999294
30
0
10
0.68630094581764223
20
0.054946367586627652
30
0
10
0.68543608291414182
20
0.055894708216375863
30
0
10
0.68339954113697132
20
0.05738814182071203
30
0
10
0.68225721229432312
20
0.057922221091940916
30
0
10
0.68020200135950948
20
0.058434076034734578
30
0
10
0.67933800353905771
20
0.058529846141338916
30
0
10
0.67759801547360865
20
0.058494928588969153
30
0
10
0.67673027410370168
20
0.058362315206453443
30
0
10
0.67588978826987767
20
0.058121309771808724
30
0
0
SPLINE
5
151
100
AcDbEntity
8
0
100
AcDbSpline
70
0
71
3
72
14
73
10
74
0
42
0.000000001
43
0.0000000001
44
0.0000000001
40
0
40
0
40
0
40
0
40
0.010119179250104351
40
0.010119179250104351
40
0.019829618249873126
40
0.019829618249873126
40
0.029381249559691729
40
0.029381249559691729
40
0.033206687325481009
40
0.033206687325481009
40
0.033206687325481009
40
0.033206687325481009
10
0.81370846906589867
20
-0.42250953736936797
30
0
10
0.81498456436065148
20
-0.42214362293180901
30
0
10
0.8161767957073387
20
-0.42153387664164071
30
0
10
0.81820666347875326
20
-0.41990933468768576
30
0
10
0.81903441059019255
20
-0.41892945700931222
30
0
10
0.82025114852583803
20
-0.4167168923719346
30
0
10
0.82063274660223318
20
-0.41551460015625652
30
0
10
0.82083264198447425
20
-0.41377195121173627
30
0
10
0.82085106172005717
20
-0.4132706618662958
30
0
10
0.82083136627155251
20
-0.4127705890753347
30
0
0
ELLIPSE
5
152
100
AcDbEntity
8
0
100
AcDbEllipse
10
1.3544616861656693
20
-1.1865849665294415
30
0
11
0.48063084796913169
21
-0.13781867790851221
31
0.0
40
0.99965732497555704
41
1.6905587239873023
42
1.8282323914641025
0
ELLIPSE
5
153
100
AcDbEntity
8
0
100
AcDbEllipse
10
0.77320542758286359
20
-1.0199144770401236
30
0
11
0.48063277872330135
21
-0.13781923154337011
31
0.0
40
0.99965732497555781
41
1.3133605691552674
42
1.4510336769603536
0
ELLIPSE
5
154
100
AcDbEntity
8
0
100
AcDbEllipse
10
0.193598542100056
20
-0.025724023654996792
30
0
11
0.13781923154330555
21
-0.48063277872331989
31
0.0
40
0.99965732497555726
41
1.3133605691552888
42
1.4510336769603756
0
ELLIPSE
5
155
100
AcDbEntity
8
0
100
AcDbEllipse
10
0.78241914005843261
20
-1.0253394373426259
30
0
11
0.35355339059327989
21
-0.3535533905932346
31
0.0
40
0.99965732497555737
41
1.6905587239871986
42
1.8282323914639997
0
ELLIPSE
5
156
100
AcDbEntity
8
0
100
AcDbEllipse
10
1.3804396808023782
20
7.2881526966076334e-05
30
0
11
0.18950068212401155
21
-0.66086741595763387
31
0.0
40
0.99965732497555726
41
4.4549529157157828
42
4.7123889803848584
0
ELLIPSE
5
157
100
AcDbEntity
8
0
100
AcDbEllipse
10
0.36027283968232654
20
-0.60697919028471958
30
0
11
0.13781867790843438
21
-0.48063084796915373
31
0.0
40
0.99965732497555737
41
1.6905587239873854
42
1.8282323914641858
0
SPLINE
5
158
100
AcDbEntity
8
0
100
AcDbSpline
70
0
71
3
72
16
73
12
74
0
42
0.000000001
43
0.0000000001
44
0.0000000001
40
0.009476188156738485
40
0.009476188156738485
40
0.009476188156738485
40
0.009476188156738485
40
0.010126130544184511
40
0.010126130544184511
40
0.01984075967263061
40
0.01984075967263061
40
0.029390550549108697
40
0.029390550549108697
40
0.035996786201364067
40
0.035996786201364067
40
0.042664650393579612
40
0.042664650393579612
40
0.042664650393579612
40
0.042664650393579612
10
0.96741492535220019
20
-0.55935414940212969
30
0
10
0.96732986543504174
20
-0.55935079928099485
30
0
10
0.96724471085159924
20
-0.5593485496553966
30
0
10
0.96588555113816488
20
-0.55933034722356345
30
0
10
0.96462300515911359
20
-0.55956124859355461
30
0
10
0.96227729891408198
20
-0.56049693473363615
30
0
10
0.96121903194511105
20
-0.56118266563937669
30
0
10
0.95969585846894634
20
-0.56265434156516603
30
0
10
0.9591567917230589
20
-0.56333630284745606
30
0
10
0.95826435029145118
20
-0.56483039989735573
30
0
10
0.95791697994973257
20
-0.56563656070015156
30
0
10
0.9576759745150879
20
-0.56647704653397568
30
0
0
SPLINE
5
159
100
AcDbEntity
8
0
100
AcDbSpline
70
0
71
3
72
16
73
12
74
0
42
0.000000001
43
0.0000000001
44
0.0000000001
40
0.009476188156738485
40
0.009476188156738485
40
0.009476188156738485
40
0.009476188156738485
40
0.010126130544184511
40
0.010126130544184511
40
0.01984075967263061
40
0.01984075967263061
40
0.029390550549108697
40
0.029390550549108697
40
0.035996786201364067
40
0.035996786201364067
40
0.042664650393579612
40
0.042664650393579612
40
0.042664650393579612
40
0.042664650393579612
10
0.74798794972479588
20
-0.28910701063038002
30
0
10
0.74791517881591674
20
-0.2890628426822785
30
0
10
0.7478417915792166
20
-0.28901959135413552
30
0
10
0.7466618684227615
20
-0.28834473744401223
30
0
10
0.74544567762281388
20
-0.28793459389596465
30
0
10
0.74294044707150653
20
-0.28761574247991384
30
0
10
0.7416824169850269
20
-0.28770243823652303
30
0
10
0.73963673679867348
20
-0.28825114584919215
30
0
10
0.73883463700896701
20
-0.28858625788182807
30
0
10
0.73732973752204223
20
-0.2894603604144993
30
0
10
0.73663508606283856
20
-0.28999703605629457
30
0
10
0.73601682234225196
20
-0.29061529977688111
30
0
0
SPLINE
5
160
100
AcDbEntity
8
0
100
AcDbSpline
70
0
71
3
72
14
73
10
74
0
42
0.000000001
43
0.0000000001
44
0.0000000001
40
0
40
0
40
0
40
0
40
0.010119179250104351
40
0.010119179250104351
40
0.019829618249873126
40
0.019829618249873126
40
0.029381249559691729
40
0.029381249559691729
40
0.033206687325481009
40
0.033206687325481009
40
0.033206687325481009
40
0.033206687325481009
10
1.0895702150595945
20
-0.64416868824608686
30
0
10
1.090508914313058
20
-0.64322998899262374
30
0
10
1.091256052476957
20
-0.64211868764445401
30
0
10
1.0922438212649519
20
-0.63971373181304059
30
0
10
1.0924927310760044
20
-0.63845541172219222
30
0
10
1.0924842414313261
20
-0.63593037283050247
30
0
10
1.09223511179664
20
-0.63469382194642621
30
0
10
1.0915650912642987
20
-0.63307275563256982
30
0
10
1.0913381716308435
20
-0.63262538802705548
30
0
10
1.0910785055035588
20
-0.63219756305198682
30
0
0
LINE
5
161
100
AcDbEntity
8
0
100
AcDbLine
10
1.4383068233122314
20
-0.70429572155495446
30
0
11
1.2654861642894202
21
-1.3069929840252115
31
0
0
LINE
5
162
100
AcDbEntity
8
0
100
AcDbLine
10
1.2533453541520927
20
-1.313720025440551
30
0
11
0.62499999999999989
21
-1.7499999999999993
31
0
6
DASHED
0
LINE
5
163
100
AcDbEntity
8
0
100
AcDbLine
10
0.67588978826987767
20
0.058121309771808766
30
0
11
-0.67588978826987767
21
0.058121309771808724
31
0
6
DASHED
0
ENDSEC
0
SECTION
2
OBJECTS
0
DICTIONARY
5
C
100
AcDbDictionary
3
ACAD_GROUP
350
D
3
ACAD_MLINESTYLE
350
17
0
DICTIONARY
5
D
100
AcDbDictionary
0
DICTIONARY
5
1A
330
C
100
AcDbDictionary
0
DICTIONARY
5
17
100
AcDbDictionary
0
ENDSEC
0
EOF
