0
SECTION
2
HEADER
9
$INSUNITS
70
1
9
$ACADVER
1
AC1014
9
$HANDSEED
5
FFFF
0
ENDSEC
0
SECTION
2
TABLES
0
TABLE
2
VPORT
5
8
100
AcDbSymbolTable
0
ENDTAB
0
TABLE
2
LTYPE
5
5
100
AcDbSymbolTable
0
LTYPE
5
14
100
AcDbSymbolTableRecord
100
AcDbLinetypeTableRecord
2
BYBLOCK
70
0
0
LTYPE
5
15
100
AcDbSymbolTableRecord
100
AcDbLinetypeTableRecord
2
BYLAYER
70
0
0
LTYPE
5
16
100
AcDbSymbolTableRecord
100
AcDbLinetypeTableRecord
2
DASHED
70
0
3
Dashed __ __ __ __ __ __ __ __ __ __ __ __ __ _
72
65
73
2
40
0.75
49
0.5
74
0
49
-0.25
74
0
0
ENDTAB
0
TABLE
2
LAYER
5
2
100
AcDbSymbolTable
70
2
0
LAYER
5
50
100
AcDbSymbolTableRecord
100
AcDbLayerTableRecord
2
0
70
0
62
7
6
CONTINUOUS
0
ENDTAB
0
TABLE
2
STYLE
5
3
100
AcDbSymbolTable
70
1
0
STYLE
5
11
100
AcDbSymbolTableRecord
100
AcDbTextStyleTableRecord
2
STANDARD
70
0
0
ENDTAB
0
TABLE
2
VIEW
5
6
100
AcDbSymbolTable
70
0
0
ENDTAB
0
TABLE
2
UCS
5
7
100
AcDbSymbolTable
70
0
0
ENDTAB
0
TABLE
2
APPID
5
9
100
AcDbSymbolTable
70
2
0
APPID
5
12
100
AcDbSymbolTableRecord
100
AcDbRegAppTableRecord
2
ACAD
70
0
0
ENDTAB
0
TABLE
2
DIMSTYLE
5
A
100
AcDbSymbolTable
70
1
0
ENDTAB
0
TABLE
2
BLOCK_RECORD
5
1
100
AcDbSymbolTable
70
1
0
BLOCK_RECORD
5
1F
100
AcDbSymbolTableRecord
100
AcDbBlockTableRecord
2
*MODEL_SPACE
0
BLOCK_RECORD
5
1B
100
AcDbSymbolTableRecord
100
AcDbBlockTableRecord
2
*PAPER_SPACE
0
ENDTAB
0
ENDSEC
0
SECTION
2
BLOCKS
0
BLOCK
5
20
100
AcDbEntity
100
AcDbBlockBegin
2
*MODEL_SPACE
0
ENDBLK
5
21
100
AcDbEntity
100
AcDbBlockEnd
0
BLOCK
5
1C
100
AcDbEntity
100
AcDbBlockBegin
2
*PAPER_SPACE
0
ENDBLK
5
1D
100
AcDbEntity
100
AcDbBlockEnd
0
ENDSEC
0
SECTION
2
ENTITIES
0
LINE
5
100
100
AcDbEntity
8
0
100
AcDbLine
10
1.6750000000000007
20
0.03937007874015748
30
0
11
1.7143700787401579
21
0
31
0
0
LINE
5
101
100
AcDbEntity
8
0
100
AcDbLine
10
1.7143700787401579
20
0
30
0
11
2.8856299212598433
21
0
31
0
0
LINE
5
102
100
AcDbEntity
8
0
100
AcDbLine
10
2.8856299212598433
20
0
30
0
11
2.9250000000000003
21
0.03937007874015748
31
0
0
LINE
5
103
100
AcDbEntity
8
0
100
AcDbLine
10
2.9250000000000003
20
0.03937007874015748
30
0
11
2.9250000000000003
21
3.4656039638804401
31
0
0
LINE
5
104
100
AcDbEntity
8
0
100
AcDbLine
10
2.9250000000000003
20
3.4656039638804401
30
0
11
2.8846847167196654
21
3.505919247160775
31
0
0
LINE
5
105
100
AcDbEntity
8
0
100
AcDbLine
10
2.8846847167196654
20
3.505919247160775
30
0
11
2.8846847167196654
21
3.8198960122974439
31
0
0
LINE
5
106
100
AcDbEntity
8
0
100
AcDbLine
10
2.8846847167196654
20
3.8198960122974439
30
0
11
2.9376056676581714
21
3.9321790149192268
31
0
0
ELLIPSE
5
107
100
AcDbEntity
8
0
100
AcDbEllipse
10
2.95086978152611
20
3.9590712171919944
30
0
11
0.019202042813650601
21
-0.023049545587337072
31
0.0
40
0.99941943360284247
41
5.1301638826380858
42
6.7009602094329788
0
LINE
5
108
100
AcDbEntity
8
0
100
AcDbLine
10
2.9777667436954314
20
3.9457903493695334
30
0
11
3.2386276497648807
21
4.4746703274006441
31
0
0
ELLIPSE
5
109
100
AcDbEntity
8
0
100
AcDbEllipse
10
3.2117306875955589
20
4.487951195223105
30
0
11
0.019202042813653234
21
-0.023049545587334838
31
0.0
40
0.9994194336028428
41
0.41777490225329139
42
1.6181094017662627
0
ELLIPSE
5
110
100
AcDbEntity
8
0
100
AcDbEllipse
10
3.0637012750732651
20
3.6502229706492777
30
0
11
0.56005958206482265
21
-0.6722784129639866
31
0.0
40
0.99941943360284247
41
2.2509696150149714
42
2.3376370794471888
0
ELLIPSE
5
111
100
AcDbEntity
8
0
100
AcDbEllipse
10
3.1970447188895874
20
4.9554705698686865
30
0
11
-0.28002979103243969
21
0.33613920648196982
31
0.0
40
0.99941943360284269
41
1.6176887629994112
42
2.3594536950969331
0
ELLIPSE
5
112
100
AcDbEntity
8
0
100
AcDbEllipse
10
2.2387667932633368
20
4.0597708611477064
30
0
11
0.56005958206492956
21
-0.67227841296389756
31
0.0
40
0.99941943360284269
41
1.6329063406509492
42
1.6377403098425285
0
ELLIPSE
5
113
100
AcDbEntity
8
0
100
AcDbEllipse
10
3.1969765675016952
20
4.9554043278982132
30
0
11
-0.28002979103246323
21
0.33613920648195028
31
0.0
40
0.99941943360284269
41
0.96319029350147023
42
1.6080157387539555
0
ELLIPSE
5
114
100
AcDbEntity
8
0
100
AcDbEllipse
10
1.8911800370240615
20
4.8285333495668974
30
0
11
0.56005958206496154
21
-0.67227841296387103
31
0.0
40
0.99941943360284324
41
0.97840787115302741
42
1.0643071966318869
0
ELLIPSE
5
115
100
AcDbEntity
8
0
100
AcDbEllipse
10
2.729514543146383
20
4.9703588691308429
30
0
11
-0.019202042813655232
21
0.023049545587333239
31
0.0
40
0.99941943360284302
41
4.8176720489263181
42
6.0464617399349097
0
LINE
5
116
100
AcDbEntity
8
0
100
AcDbLine
10
2.7162504292784453
20
4.9972662254645215
30
0
11
1.8837495707215557
21
4.9972662254645215
31
0
0
ELLIPSE
5
117
100
AcDbEntity
8
0
100
AcDbEllipse
10
1.8704854568536176
20
4.9703588691308429
30
0
11
0.019202042813655232
21
0.023049545587333239
31
0.0
40
0.99941943360284302
41
0.23672356724466653
42
1.4655132582532941
0
ELLIPSE
5
118
100
AcDbEntity
8
0
100
AcDbEllipse
10
2.7088199629759391
20
4.8285333495668974
30
0
11
-0.56005958206496154
21
-0.67227841296387103
31
0.0
40
0.99941943360284324
41
5.2188781105477009
42
5.3047774360265585
0
ELLIPSE
5
119
100
AcDbEntity
8
0
100
AcDbEllipse
10
1.4030234324983049
20
4.9554043278982132
30
0
11
0.28002979103246323
21
0.33613920648195028
31
0.0
40
0.99941943360284269
41
4.6751695684256322
42
5.319995013678116
0
ELLIPSE
5
120
100
AcDbEntity
8
0
100
AcDbEllipse
10
2.3612332067366637
20
4.0597708611477064
30
0
11
-0.56005958206492956
21
-0.67227841296389756
31
0.0
40
0.99941943360284291
41
4.6454449973370568
42
4.6502789665286359
0
ELLIPSE
5
121
100
AcDbEntity
8
0
100
AcDbEllipse
10
1.4029552811104138
20
4.9554705698686865
30
0
11
0.28002979103243969
21
0.33613920648196982
31
0.0
40
0.99941943360284269
41
3.9237316120826544
42
4.6654965441801775
0
ELLIPSE
5
122
100
AcDbEntity
8
0
100
AcDbEllipse
10
1.5362987249267357
20
3.6502229706492777
30
0
11
-0.56005958206482265
21
-0.6722784129639866
31
0.0
40
0.99941943360284247
41
3.9455482277323979
42
4.0322156921646144
0
ELLIPSE
5
123
100
AcDbEntity
8
0
100
AcDbEllipse
10
1.3882693124044416
20
4.487951195223105
30
0
11
-0.019202042813653234
21
-0.023049545587334838
31
0.0
40
0.9994194336028428
41
4.6650759054132873
42
5.8654104049262852
0
LINE
5
124
100
AcDbEntity
8
0
100
AcDbLine
10
1.3613723502351196
20
4.4746703274006441
30
0
11
1.6222332563045689
21
3.9457903493695334
31
0
0
ELLIPSE
5
125
100
AcDbEntity
8
0
100
AcDbEllipse
10
1.6491302184738907
20
3.9590712171919944
30
0
11
-0.019202042813650601
21
-0.023049545587337072
31
0.0
40
0.99941943360284247
41
5.8654104049261893
42
7.4362067317210672
0
LINE
5
126
100
AcDbEntity
8
0
100
AcDbLine
10
1.6623943323418291
20
3.9321790149192268
30
0
11
1.7153152832803356
21
3.8198960122974439
31
0
0
LINE
5
127
100
AcDbEntity
8
0
100
AcDbLine
10
1.7153152832803356
20
3.8198960122974439
30
0
11
1.7153152832803356
21
3.505919247160775
31
0
0
LINE
5
128
100
AcDbEntity
8
0
100
AcDbLine
10
1.7153152832803356
20
3.505919247160775
30
0
11
1.6750000000000007
21
3.4656039638804401
31
0
0
LINE
5
129
100
AcDbEntity
8
0
100
AcDbLine
10
1.6750000000000007
20
3.4656039638804401
30
0
11
1.6750000000000007
21
0.03937007874015748
31
0
0
ENDSEC
0
SECTION
2
OBJECTS
0
DICTIONARY
5
C
100
AcDbDictionary
3
ACAD_GROUP
350
D
3
ACAD_MLINESTYLE
350
17
0
DICTIONARY
5
D
100
AcDbDictionary
0
DICTIONARY
5
1A
330
C
100
AcDbDictionary
0
DICTIONARY
5
17
100
AcDbDictionary
0
ENDSEC
0
EOF
