0
SECTION
2
HEADER
9
$INSUNITS
70
1
9
$ACADVER
1
AC1014
9
$HANDSEED
5
FFFF
0
ENDSEC
0
SECTION
2
TABLES
0
TABLE
2
VPORT
5
8
100
AcDbSymbolTable
0
ENDTAB
0
TABLE
2
LTYPE
5
5
100
AcDbSymbolTable
0
LTYPE
5
14
100
AcDbSymbolTableRecord
100
AcDbLinetypeTableRecord
2
BYBLOCK
70
0
0
LTYPE
5
15
100
AcDbSymbolTableRecord
100
AcDbLinetypeTableRecord
2
BYLAYER
70
0
0
LTYPE
5
16
100
AcDbSymbolTableRecord
100
AcDbLinetypeTableRecord
2
DASHED
70
0
3
Dashed __ __ __ __ __ __ __ __ __ __ __ __ __ _
72
65
73
2
40
0.75
49
0.5
74
0
49
-0.25
74
0
0
ENDTAB
0
TABLE
2
LAYER
5
2
100
AcDbSymbolTable
70
2
0
LAYER
5
50
100
AcDbSymbolTableRecord
100
AcDbLayerTableRecord
2
0
70
0
62
7
6
CONTINUOUS
0
ENDTAB
0
TABLE
2
STYLE
5
3
100
AcDbSymbolTable
70
1
0
STYLE
5
11
100
AcDbSymbolTableRecord
100
AcDbTextStyleTableRecord
2
STANDARD
70
0
0
ENDTAB
0
TABLE
2
VIEW
5
6
100
AcDbSymbolTable
70
0
0
ENDTAB
0
TABLE
2
UCS
5
7
100
AcDbSymbolTable
70
0
0
ENDTAB
0
TABLE
2
APPID
5
9
100
AcDbSymbolTable
70
2
0
APPID
5
12
100
AcDbSymbolTableRecord
100
AcDbRegAppTableRecord
2
ACAD
70
0
0
ENDTAB
0
TABLE
2
DIMSTYLE
5
A
100
AcDbSymbolTable
70
1
0
ENDTAB
0
TABLE
2
BLOCK_RECORD
5
1
100
AcDbSymbolTable
70
1
0
BLOCK_RECORD
5
1F
100
AcDbSymbolTableRecord
100
AcDbBlockTableRecord
2
*MODEL_SPACE
0
BLOCK_RECORD
5
1B
100
AcDbSymbolTableRecord
100
AcDbBlockTableRecord
2
*PAPER_SPACE
0
ENDTAB
0
ENDSEC
0
SECTION
2
BLOCKS
0
BLOCK
5
20
100
AcDbEntity
100
AcDbBlockBegin
2
*MODEL_SPACE
0
ENDBLK
5
21
100
AcDbEntity
100
AcDbBlockEnd
0
BLOCK
5
1C
100
AcDbEntity
100
AcDbBlockBegin
2
*PAPER_SPACE
0
ENDBLK
5
1D
100
AcDbEntity
100
AcDbBlockEnd
0
ENDSEC
0
SECTION
2
ENTITIES
0
ELLIPSE
5
100
100
AcDbEntity
8
0
100
AcDbEllipse
10
-0.62494050676997803
20
-4.8151836361464984
30
0
11
0.046602644676664473
21
-0.1165265785524511
31
0.0
40
0.99972395920536006
41
5.9026428204403034
42
9.0442354740300814
0
LINE
5
101
100
AcDbEntity
8
0
100
AcDbLine
10
-0.62494050676997737
20
-4.6896884148019442
30
0
11
-0.62494050676997726
21
-4.2773291738391981
31
0
0
ELLIPSE
5
102
100
AcDbEntity
8
0
100
AcDbEllipse
10
-0.59494764595757987
20
-4.2773348848902577
30
0
11
-0.011140074424696136
21
0.0278549590165241
31
0.0
40
0.99972395920535995
41
5.9899092830401655
42
7.4734391472353554
0
LINE
5
103
100
AcDbEntity
8
0
100
AcDbLine
10
-0.59756169601881093
20
-4.2474496841578562
30
0
11
-0.15766640410365199
21
-4.2090399000607528
31
0
0
ELLIPSE
5
104
100
AcDbEntity
8
0
100
AcDbEllipse
10
-0.15505235404242024
20
-4.2389251007931517
30
0
11
-0.011140074424696347
21
0.027854959016524117
31
0.0
40
0.99972395920535995
41
4.3318464936455729
42
5.9899092830401859
0
LINE
5
105
100
AcDbEntity
8
0
100
AcDbLine
10
-0.12505949323002277
20
-4.2389308118442113
30
0
11
-0.12505949323002327
21
-4.9315401263044807
31
0
0
ELLIPSE
5
106
100
AcDbEntity
8
0
100
AcDbEllipse
10
-0.15505235404242057
20
-4.9315344152534211
30
0
11
0.011140074424696047
21
-0.027854959016524024
31
0.0
40
0.99972395920535972
41
5.9899092830401912
42
7.4734391472353634
0
LINE
5
107
100
AcDbEntity
8
0
100
AcDbLine
10
-0.15243830398118857
20
-4.9614196159858226
30
0
11
-0.59233359589634804
21
-4.9998294000829251
31
0
0
ELLIPSE
5
108
100
AcDbEntity
8
0
100
AcDbEllipse
10
-0.59494764595758021
20
-4.9699441993505262
30
0
11
0.0111400744247024
21
-0.027854959016521477
31
0.0
40
0.99972395920536028
41
4.3318464936453278
42
5.9899092830399789
0
LINE
5
109
100
AcDbEntity
8
0
100
AcDbLine
10
-0.62494050676997748
20
-4.9699384882994666
30
0
11
-0.62494050676997759
21
-4.9406788574910507
31
0
0
ELLIPSE
5
110
100
AcDbEntity
8
0
100
AcDbEllipse
10
-0.37500000000000011
20
-4.6044346500718394
30
0
11
0.055700372123495351
21
-0.13927479508261412
31
0.0
40
0.99972395920536028
41
0
42
6.2831853071795862
0
LINE
5
111
100
AcDbEntity
8
0
100
AcDbLine
10
1.7704809055149935e-16
20
-3.3999999999999995
30
0
11
-0.091837082505797432
21
-3.3999999999999995
31
0
0
LINE
5
112
100
AcDbEntity
8
0
100
AcDbLine
10
-0.091837082505797432
20
-3.3999999999999995
30
0
11
-0.62500000000000011
21
-3.3999999999999995
31
0
0
LINE
5
113
100
AcDbEntity
8
0
100
AcDbLine
10
1.7704809055149935e-16
20
-3.3999999999999995
30
0
11
-0.60697700044893466
21
-3.3999999999999995
31
0
0
LINE
5
114
100
AcDbEntity
8
0
100
AcDbLine
10
0.091837082505797515
20
-3.3999999999999995
30
0
11
1.7704809055149935e-16
21
-3.3999999999999995
31
0
0
LINE
5
115
100
AcDbEntity
8
0
100
AcDbLine
10
0.62500000000000011
20
-3.3999999999999995
30
0
11
0.091837082505797515
21
-3.3999999999999995
31
0
0
LINE
5
116
100
AcDbEntity
8
0
100
AcDbLine
10
0.60697700044893466
20
-3.3999999999999995
30
0
11
1.7704809055149935e-16
21
-3.3999999999999995
31
0
0
LINE
5
117
100
AcDbEntity
8
0
100
AcDbLine
10
0.625
20
-0.01557007874015748
30
0
11
-0.625
21
-0.01557007874015748
31
0
0
LINE
5
118
100
AcDbEntity
8
0
100
AcDbLine
10
0.62500000000000011
20
-3.3999999999999995
30
0
11
0.625
21
-0.01557007874015748
31
0
0
LINE
5
119
100
AcDbEntity
8
0
100
AcDbLine
10
-0.62500000000000011
20
-3.3999999999999995
30
0
11
-0.625
21
-0.01557007874015748
31
0
0
LINE
5
120
100
AcDbEntity
8
0
100
AcDbLine
10
-0.59552817786319401
20
-4.2472721260099275
30
0
11
-0.59552817786319401
21
-3.3999981533354076
31
0
0
LINE
5
121
100
AcDbEntity
8
0
100
AcDbLine
10
1.7704809055149935e-16
20
-3.3999999999999995
30
0
11
1.7704809055149935e-16
21
-3.2191501884127658
31
0
6
DASHED
0
LINE
5
122
100
AcDbEntity
8
0
100
AcDbLine
10
0.59552817786319434
20
-4.2472721260099275
30
0
11
0.59552817786319434
21
-3.3999981533354076
31
0
6
DASHED
0
ELLIPSE
5
123
100
AcDbEntity
8
0
100
AcDbEllipse
10
0.59494764595758021
20
-4.2773348848902577
30
0
11
0.011140074424696136
21
0.0278549590165241
31
0.0
40
0.99972395920535995
41
5.0929314671238037
42
6.576461331319007
6
DASHED
0
LINE
5
124
100
AcDbEntity
8
0
100
AcDbLine
10
0.6249405067699777
20
-4.6896884148019442
30
0
11
0.62494050676997759
21
-4.2773291738391981
31
0
6
DASHED
0
ELLIPSE
5
125
100
AcDbEntity
8
0
100
AcDbEllipse
10
0.62494050676997837
20
-4.8151836361464984
30
0
11
-0.046602644676664473
21
-0.1165265785524511
31
0.0
40
0.99972395920536006
41
3.522135140329091
42
6.6637277939188655
6
DASHED
0
LINE
5
126
100
AcDbEntity
8
0
100
AcDbLine
10
0.62494050676997781
20
-4.9699384882994666
30
0
11
0.62494050676997792
21
-4.9406788574910507
31
0
6
DASHED
0
ELLIPSE
5
127
100
AcDbEntity
8
0
100
AcDbEllipse
10
0.59494764595758054
20
-4.9699441993505262
30
0
11
-0.0111400744247024
21
-0.027854959016521477
31
0.0
40
0.99972395920536028
41
0.29327602413962084
42
1.9513388135342535
6
DASHED
0
LINE
5
128
100
AcDbEntity
8
0
100
AcDbLine
10
0.32198210056359827
20
-4.9762234584943013
30
0
11
-0.32198210056359794
21
-4.9762234584943013
31
0
6
DASHED
0
LINE
5
129
100
AcDbEntity
8
0
100
AcDbLine
10
0.32198210056359827
20
-4.9762234584943013
30
0
11
0.59233359589634837
21
-4.9998294000829251
31
0
6
DASHED
0
ENDSEC
0
SECTION
2
OBJECTS
0
DICTIONARY
5
C
100
AcDbDictionary
3
ACAD_GROUP
350
D
3
ACAD_MLINESTYLE
350
17
0
DICTIONARY
5
D
100
AcDbDictionary
0
DICTIONARY
5
1A
330
C
100
AcDbDictionary
0
DICTIONARY
5
17
100
AcDbDictionary
0
ENDSEC
0
EOF
