0
SECTION
2
HEADER
9
$INSUNITS
70
1
9
$ACADVER
1
AC1014
9
$HANDSEED
5
FFFF
0
ENDSEC
0
SECTION
2
TABLES
0
TABLE
2
VPORT
5
8
100
AcDbSymbolTable
0
ENDTAB
0
TABLE
2
LTYPE
5
5
100
AcDbSymbolTable
0
LTYPE
5
14
100
AcDbSymbolTableRecord
100
AcDbLinetypeTableRecord
2
BYBLOCK
70
0
0
LTYPE
5
15
100
AcDbSymbolTableRecord
100
AcDbLinetypeTableRecord
2
BYLAYER
70
0
0
LTYPE
5
16
100
AcDbSymbolTableRecord
100
AcDbLinetypeTableRecord
2
DASHED
70
0
3
Dashed __ __ __ __ __ __ __ __ __ __ __ __ __ _
72
65
73
2
40
0.75
49
0.5
74
0
49
-0.25
74
0
0
ENDTAB
0
TABLE
2
LAYER
5
2
100
AcDbSymbolTable
70
2
0
LAYER
5
50
100
AcDbSymbolTableRecord
100
AcDbLayerTableRecord
2
0
70
0
62
7
6
CONTINUOUS
0
ENDTAB
0
TABLE
2
STYLE
5
3
100
AcDbSymbolTable
70
1
0
STYLE
5
11
100
AcDbSymbolTableRecord
100
AcDbTextStyleTableRecord
2
STANDARD
70
0
0
ENDTAB
0
TABLE
2
VIEW
5
6
100
AcDbSymbolTable
70
0
0
ENDTAB
0
TABLE
2
UCS
5
7
100
AcDbSymbolTable
70
0
0
ENDTAB
0
TABLE
2
APPID
5
9
100
AcDbSymbolTable
70
2
0
APPID
5
12
100
AcDbSymbolTableRecord
100
AcDbRegAppTableRecord
2
ACAD
70
0
0
ENDTAB
0
TABLE
2
DIMSTYLE
5
A
100
AcDbSymbolTable
70
1
0
ENDTAB
0
TABLE
2
BLOCK_RECORD
5
1
100
AcDbSymbolTable
70
1
0
BLOCK_RECORD
5
1F
100
AcDbSymbolTableRecord
100
AcDbBlockTableRecord
2
*MODEL_SPACE
0
BLOCK_RECORD
5
1B
100
AcDbSymbolTableRecord
100
AcDbBlockTableRecord
2
*PAPER_SPACE
0
ENDTAB
0
ENDSEC
0
SECTION
2
BLOCKS
0
BLOCK
5
20
100
AcDbEntity
100
AcDbBlockBegin
2
*MODEL_SPACE
0
ENDBLK
5
21
100
AcDbEntity
100
AcDbBlockEnd
0
BLOCK
5
1C
100
AcDbEntity
100
AcDbBlockBegin
2
*PAPER_SPACE
0
ENDBLK
5
1D
100
AcDbEntity
100
AcDbBlockEnd
0
ENDSEC
0
SECTION
2
ENTITIES
0
LINE
5
100
100
AcDbEntity
8
0
100
AcDbLine
10
1.694685039370079
20
0
30
0
11
2.9053149606299216
21
0
31
0
0
LINE
5
101
100
AcDbEntity
8
0
100
AcDbLine
10
2.9053149606299216
20
0
30
0
11
2.9250000000000003
21
0.01968503937007874
31
0
0
LINE
5
102
100
AcDbEntity
8
0
100
AcDbLine
10
2.9250000000000003
20
0.01968503937007874
30
0
11
2.9250000000000003
21
3.5617500574486796
31
0
0
LINE
5
103
100
AcDbEntity
8
0
100
AcDbLine
10
2.9250000000000003
20
3.5617500574486796
30
0
11
2.8844147507588085
21
3.6023353066898713
31
0
0
LINE
5
104
100
AcDbEntity
8
0
100
AcDbLine
10
2.8844147507588085
20
3.6023353066898713
30
0
11
2.8844147507588085
21
3.8540936162761539
31
0
0
LINE
5
105
100
AcDbEntity
8
0
100
AcDbLine
10
2.8844147507588085
20
3.8540936162761539
30
0
11
2.9195784138562999
21
3.9469077412086699
31
0
0
ELLIPSE
5
106
100
AcDbEntity
8
0
100
AcDbEllipse
10
2.932842527724238
20
3.9737999434814384
30
0
11
0.019202042813654889
21
-0.023049545587333513
31
0.0
40
0.99941943360284302
41
5.1301638826379081
42
6.7009602094328402
0
LINE
5
107
100
AcDbEntity
8
0
100
AcDbLine
10
2.9597394898935603
20
3.9605190756589779
30
0
11
3.2206003959630092
21
4.4893990536900867
31
0
0
ELLIPSE
5
108
100
AcDbEntity
8
0
100
AcDbEllipse
10
3.1937034337936878
20
4.5026799215125486
30
0
11
0.01920204281365416
21
-0.023049545587333912
31
0.0
40
0.99941943360284269
41
0.41777490225324521
42
1.78959711207223
0
ELLIPSE
5
109
100
AcDbEntity
8
0
100
AcDbEllipse
10
3.0534818975359612
20
3.666204514221739
30
0
11
0.56005958206482054
21
-0.67227841296398827
31
0.0
40
0.99941943360284291
41
2.2644615248056041
42
2.3594536950970872
0
ELLIPSE
5
110
100
AcDbEntity
8
0
100
AcDbEllipse
10
3.1650901455263809
20
4.9419624837717242
30
0
11
0.25986764607813567
21
-0.31193718361524131
31
0.0
40
0.99941943360284202
41
4.7592814165890998
42
5.5010463486866934
0
ELLIPSE
5
111
100
AcDbEntity
8
0
100
AcDbEllipse
10
2.2209615172767898
20
4.0772767037174731
30
0
11
0.560059582064935
21
-0.67227841296389346
31
0.0
40
0.99941943360284247
41
1.6176887629993277
42
1.6256804411672705
0
ELLIPSE
5
112
100
AcDbEntity
8
0
100
AcDbEllipse
10
3.1650269010384182
20
4.9419010112231243
30
0
11
0.25986764607811064
21
-0.31193718361526207
31
0.0
40
0.99941943360284269
41
4.1047829470913104
42
4.74205085535921
0
ELLIPSE
5
113
100
AcDbEntity
8
0
100
AcDbEllipse
10
1.8893387890883577
20
4.8310098013449876
30
0
11
0.56005958206486184
21
-0.67227841296395441
31
0.0
40
0.99941943360284247
41
0.96319029350156049
42
1.0581824637930433
0
ELLIPSE
5
114
100
AcDbEntity
8
0
100
AcDbEllipse
10
2.7258066869608935
20
4.9707681978039044
30
0
11
-0.0192020428136539
21
0.023049545587334349
31
0.0
40
0.99941943360284302
41
4.6746395301159662
42
6.0464617399349958
0
LINE
5
115
100
AcDbEntity
8
0
100
AcDbLine
10
2.7125425730929558
20
4.9976755541375821
30
0
11
1.887457426907045
21
4.9976755541375821
31
0
0
ELLIPSE
5
116
100
AcDbEntity
8
0
100
AcDbEllipse
10
1.8741933130391073
20
4.9707681978039044
30
0
11
0.0192020428136539
21
0.023049545587334349
31
0.0
40
0.99941943360284302
41
0.23672356724460461
42
1.6085457770635918
0
ELLIPSE
5
117
100
AcDbEntity
8
0
100
AcDbEllipse
10
2.7106612109116428
20
4.8310098013449876
30
0
11
-0.56005958206486184
21
-0.67227841296395441
31
0.0
40
0.99941943360284269
41
5.225002843386541
42
5.3199950136780254
0
ELLIPSE
5
118
100
AcDbEntity
8
0
100
AcDbEllipse
10
1.4349730989615828
20
4.9419010112231243
30
0
11
-0.25986764607811064
21
-0.31193718361526207
31
0.0
40
0.99941943360284269
41
1.5411344518203769
42
2.1784023600882749
0
ELLIPSE
5
119
100
AcDbEntity
8
0
100
AcDbEllipse
10
2.3790384827232107
20
4.0772767037174731
30
0
11
-0.560059582064935
21
-0.67227841296389346
31
0.0
40
0.99941943360284247
41
4.6575048660123155
42
4.6654965441802583
0
ELLIPSE
5
120
100
AcDbEntity
8
0
100
AcDbEllipse
10
1.4349098544736194
20
4.9419624837717242
30
0
11
-0.25986764607813567
21
-0.31193718361524131
31
0.0
40
0.99941943360284202
41
0.78213895849289528
42
1.5239038905904858
0
ELLIPSE
5
121
100
AcDbEntity
8
0
100
AcDbEllipse
10
1.5465181024640398
20
3.666204514221739
30
0
11
-0.56005958206482054
21
-0.67227841296398827
31
0.0
40
0.99941943360284291
41
3.9237316120824994
42
4.0187237823739821
0
ELLIPSE
5
122
100
AcDbEntity
8
0
100
AcDbEllipse
10
1.4062965662063132
20
4.5026799215125486
30
0
11
-0.01920204281365416
21
-0.023049545587333912
31
0.0
40
0.99941943360284269
41
4.4935881951073462
42
5.8654104049263305
0
LINE
5
123
100
AcDbEntity
8
0
100
AcDbLine
10
1.3793996040369916
20
4.4893990536900867
30
0
11
1.6402605101064405
21
3.9605190756589779
31
0
0
ELLIPSE
5
124
100
AcDbEntity
8
0
100
AcDbEllipse
10
1.6671574722757625
20
3.9737999434814384
30
0
11
-0.019202042813654889
21
-0.023049545587333513
31
0.0
40
0.99941943360284302
41
5.8654104049263482
42
7.4362067317212519
0
LINE
5
125
100
AcDbEntity
8
0
100
AcDbLine
10
1.6804215861437002
20
3.9469077412086699
30
0
11
1.7155852492411925
21
3.8540936162761539
31
0
0
LINE
5
126
100
AcDbEntity
8
0
100
AcDbLine
10
1.7155852492411925
20
3.8540936162761539
30
0
11
1.7155852492411925
21
3.6023353066898713
31
0
0
LINE
5
127
100
AcDbEntity
8
0
100
AcDbLine
10
1.7155852492411925
20
3.6023353066898713
30
0
11
1.6750000000000003
21
3.5617500574486796
31
0
0
LINE
5
128
100
AcDbEntity
8
0
100
AcDbLine
10
1.6750000000000003
20
3.5617500574486796
30
0
11
1.6750000000000003
21
0.019685039370079017
31
0
0
LINE
5
129
100
AcDbEntity
8
0
100
AcDbLine
10
1.6750000000000003
20
0.019685039370079017
30
0
11
1.694685039370079
21
0
31
0
0
ENDSEC
0
SECTION
2
OBJECTS
0
DICTIONARY
5
C
100
AcDbDictionary
3
ACAD_GROUP
350
D
3
ACAD_MLINESTYLE
350
17
0
DICTIONARY
5
D
100
AcDbDictionary
0
DICTIONARY
5
1A
330
C
100
AcDbDictionary
0
DICTIONARY
5
17
100
AcDbDictionary
0
ENDSEC
0
EOF
