0
SECTION
2
HEADER
9
$INSUNITS
70
1
9
$ACADVER
1
AC1014
9
$HANDSEED
5
FFFF
0
ENDSEC
0
SECTION
2
TABLES
0
TABLE
2
VPORT
5
8
100
AcDbSymbolTable
0
ENDTAB
0
TABLE
2
LTYPE
5
5
100
AcDbSymbolTable
0
LTYPE
5
14
100
AcDbSymbolTableRecord
100
AcDbLinetypeTableRecord
2
BYBLOCK
70
0
0
LTYPE
5
15
100
AcDbSymbolTableRecord
100
AcDbLinetypeTableRecord
2
BYLAYER
70
0
0
LTYPE
5
16
100
AcDbSymbolTableRecord
100
AcDbLinetypeTableRecord
2
DASHED
70
0
3
Dashed __ __ __ __ __ __ __ __ __ __ __ __ __ _
72
65
73
2
40
0.75
49
0.5
74
0
49
-0.25
74
0
0
ENDTAB
0
TABLE
2
LAYER
5
2
100
AcDbSymbolTable
70
2
0
LAYER
5
50
100
AcDbSymbolTableRecord
100
AcDbLayerTableRecord
2
0
70
0
62
7
6
CONTINUOUS
0
ENDTAB
0
TABLE
2
STYLE
5
3
100
AcDbSymbolTable
70
1
0
STYLE
5
11
100
AcDbSymbolTableRecord
100
AcDbTextStyleTableRecord
2
STANDARD
70
0
0
ENDTAB
0
TABLE
2
VIEW
5
6
100
AcDbSymbolTable
70
0
0
ENDTAB
0
TABLE
2
UCS
5
7
100
AcDbSymbolTable
70
0
0
ENDTAB
0
TABLE
2
APPID
5
9
100
AcDbSymbolTable
70
2
0
APPID
5
12
100
AcDbSymbolTableRecord
100
AcDbRegAppTableRecord
2
ACAD
70
0
0
ENDTAB
0
TABLE
2
DIMSTYLE
5
A
100
AcDbSymbolTable
70
1
0
ENDTAB
0
TABLE
2
BLOCK_RECORD
5
1
100
AcDbSymbolTable
70
1
0
BLOCK_RECORD
5
1F
100
AcDbSymbolTableRecord
100
AcDbBlockTableRecord
2
*MODEL_SPACE
0
BLOCK_RECORD
5
1B
100
AcDbSymbolTableRecord
100
AcDbBlockTableRecord
2
*PAPER_SPACE
0
ENDTAB
0
ENDSEC
0
SECTION
2
BLOCKS
0
BLOCK
5
20
100
AcDbEntity
100
AcDbBlockBegin
2
*MODEL_SPACE
0
ENDBLK
5
21
100
AcDbEntity
100
AcDbBlockEnd
0
BLOCK
5
1C
100
AcDbEntity
100
AcDbBlockBegin
2
*PAPER_SPACE
0
ENDBLK
5
1D
100
AcDbEntity
100
AcDbBlockEnd
0
ENDSEC
0
SECTION
2
ENTITIES
0
LINE
5
100
100
AcDbEntity
8
0
100
AcDbLine
10
2.8946850393700796
20
0
30
0
11
4.1053149606299213
21
0
31
0
0
LINE
5
101
100
AcDbEntity
8
0
100
AcDbLine
10
4.1053149606299213
20
0
30
0
11
4.1250000000000009
21
0.01968503937007874
31
0
0
LINE
5
102
100
AcDbEntity
8
0
100
AcDbLine
10
4.1250000000000009
20
0.01968503937007874
30
0
11
4.1250000000000009
21
3.1999999999999997
31
0
0
LINE
5
103
100
AcDbEntity
8
0
100
AcDbLine
10
4.1250000000000009
20
3.1999999999999997
30
0
11
4.6317361931134791
21
3.1999999999999997
31
0
0
LINE
5
104
100
AcDbEntity
8
0
100
AcDbLine
10
4.6317361931134791
20
3.1999999999999997
30
0
11
4.6844112624475445
21
3.2370537491396245
31
0
0
LINE
5
105
100
AcDbEntity
8
0
100
AcDbLine
10
4.6844112624475445
20
3.2370537491396245
30
0
11
4.8283899700770103
21
3.6380274196052329
31
0
0
ELLIPSE
5
106
100
AcDbEntity
8
0
100
AcDbEllipse
10
4.8362960551410783
20
3.6669547616062079
30
0
11
0.019202042813656738
21
-0.023049545587331986
31
0.0
40
0.99941943360284269
41
5.321533028941305
42
6.8144066108123553
0
LINE
5
107
100
AcDbEntity
8
0
100
AcDbLine
10
4.8645216600733487
20
3.6568035488414239
30
0
11
5.0638242042797463
21
4.2118514027868637
31
0
0
ELLIPSE
5
108
100
AcDbEntity
8
0
100
AcDbEllipse
10
5.0355985993474759
20
4.2220026155516477
30
0
11
0.019202042813656169
21
-0.023049545587332257
31
0.0
40
0.99941943360284236
41
0.53122130363283893
42
1.6442074989684392
0
ELLIPSE
5
109
100
AcDbEntity
8
0
100
AcDbEllipse
10
4.9785956161477003
20
3.7492107002236654
30
0
11
0.32003404689421144
21
-0.38415909312225593
31
0.0
40
0.99941943360284269
41
2.2888741978566731
42
2.3594536950970095
0
ELLIPSE
5
110
100
AcDbEntity
8
0
100
AcDbEllipse
10
5.09020386413812
20
5.0249686697736502
30
0
11
0.49989318124883303
21
-0.60005650345689998
31
0.0
40
0.9994194336028428
41
4.9861742193483538
42
5.5010463486866819
0
ELLIPSE
5
111
100
AcDbEntity
8
0
100
AcDbEllipse
10
4.3648861081176653
20
3.9699285841001335
30
0
11
0.32003404689418485
21
-0.38415909312227736
31
0.0
40
0.99941943360284302
41
1.8445815657587543
42
1.8640905346851888
0
ELLIPSE
5
112
100
AcDbEntity
8
0
100
AcDbEllipse
10
5.0901050580990441
20
5.0248475188805957
30
0
11
0.49989318124886728
21
-0.60005650345687134
31
0.0
40
0.99941943360284258
41
4.545478583219726
42
4.9737013247647184
0
ELLIPSE
5
113
100
AcDbEntity
8
0
100
AcDbEllipse
10
3.9839109709587275
20
4.3802985318957699
30
0
11
0.32003404689427434
21
-0.38415909312220348
31
0.0
40
0.99941943360284247
41
1.4038859296299584
42
1.4171538672913007
0
ELLIPSE
5
114
100
AcDbEntity
8
0
100
AcDbEllipse
10
5.0900424143385692
20
5.0248117433604742
30
0
11
0.4998931812488609
21
-0.60005650345687633
31
0.0
40
0.9994194336028428
41
4.1047829470911683
42
4.5369853344776168
0
ELLIPSE
5
115
100
AcDbEntity
8
0
100
AcDbEllipse
10
3.8143543023885091
20
4.9139205334823384
30
0
11
0.32003404689428139
21
-0.38415909312219726
31
0.0
40
0.99941943360284213
41
0.96319029350136853
42
1.0337697907417025
0
ELLIPSE
5
116
100
AcDbEntity
8
0
100
AcDbEllipse
10
4.287129262762484
20
4.9706594177357646
30
0
11
-0.019202042813651909
21
0.023049545587336004
31
0.0
40
0.99941943360284236
41
4.8200291432196742
42
5.933015338555375
0
LINE
5
117
100
AcDbEntity
8
0
100
AcDbLine
10
4.2769952350909728
20
4.9988937679523531
30
0
11
3.5000000000000004
21
4.9994080962405505
31
0
0
LINE
5
118
100
AcDbEntity
8
0
100
AcDbLine
10
3.5000000000000004
20
4.9994080962405505
30
0
11
2.723004764909029
21
4.9988937679523522
31
0
0
ELLIPSE
5
119
100
AcDbEntity
8
0
100
AcDbEllipse
10
2.7128707372375174
20
4.9706594177357646
30
0
11
0.019202042813651909
21
0.023049545587336004
31
0.0
40
0.99941943360284236
41
0.35016996862416055
42
1.4631561639598936
0
ELLIPSE
5
120
100
AcDbEntity
8
0
100
AcDbEllipse
10
3.1856456976114917
20
4.9139205334823384
30
0
11
-0.32003404689428139
21
-0.38415909312219726
31
0.0
40
0.99941943360284213
41
5.2494155164378826
42
5.3199950136782173
0
ELLIPSE
5
121
100
AcDbEntity
8
0
100
AcDbEllipse
10
1.9099575856614326
20
5.0248117433604742
30
0
11
-0.4998931812488609
21
-0.60005650345687633
31
0.0
40
0.99941943360284302
41
1.7461999727019697
42
2.1784023600884188
0
ELLIPSE
5
122
100
AcDbEntity
8
0
100
AcDbEllipse
10
3.0160890290412739
20
4.3802985318957699
30
0
11
-0.32003404689427434
21
-0.38415909312220348
31
0.0
40
0.9994194336028428
41
4.8660314398882889
42
4.8792993775496294
0
ELLIPSE
5
123
100
AcDbEntity
8
0
100
AcDbEllipse
10
1.9098949419009572
20
5.0248475188805957
30
0
11
-0.49989318124886728
21
-0.60005650345687134
31
0.0
40
0.99941943360284258
41
1.3094839824148683
42
1.7377067239598607
0
ELLIPSE
5
124
100
AcDbEntity
8
0
100
AcDbEllipse
10
2.6351138918823356
20
3.9699285841001335
30
0
11
-0.32003404689418485
21
-0.38415909312227736
31
0.0
40
0.99941943360284302
41
4.4190947724943959
42
4.4386037414208319
0
ELLIPSE
5
125
100
AcDbEntity
8
0
100
AcDbEllipse
10
1.9097961358618818
20
5.0249686697736502
30
0
11
-0.49989318124883303
21
-0.60005650345689998
31
0.0
40
0.99941943360284258
41
0.78213895849290471
42
1.2970110878312331
0
ELLIPSE
5
126
100
AcDbEntity
8
0
100
AcDbEllipse
10
2.0214043838523015
20
3.7492107002236654
30
0
11
-0.32003404689421144
21
-0.38415909312225593
31
0.0
40
0.99941943360284269
41
3.923731612082574
42
3.9943111093229122
0
ELLIPSE
5
127
100
AcDbEntity
8
0
100
AcDbEllipse
10
1.9644014006525252
20
4.2220026155516477
30
0
11
-0.019202042813656169
21
-0.023049545587332257
31
0.0
40
0.99941943360284213
41
4.6389778082111004
42
5.7519640035467923
0
LINE
5
128
100
AcDbEntity
8
0
100
AcDbLine
10
1.9361757957202554
20
4.2118514027868637
30
0
11
2.1354783399266526
21
3.6568035488414239
31
0
0
ELLIPSE
5
129
100
AcDbEntity
8
0
100
AcDbEllipse
10
2.163703944858923
20
3.6669547616062079
30
0
11
-0.019202042813656738
21
-0.023049545587331986
31
0.0
40
0.99941943360284269
41
5.7519640035467923
42
7.2448375854178462
0
LINE
5
130
100
AcDbEntity
8
0
100
AcDbLine
10
2.1716100299229901
20
3.6380274196052329
30
0
11
2.3155887375524569
21
3.2370537491396245
31
0
0
LINE
5
131
100
AcDbEntity
8
0
100
AcDbLine
10
2.3155887375524569
20
3.2370537491396245
30
0
11
2.3682638068865223
21
3.1999999999999997
31
0
0
LINE
5
132
100
AcDbEntity
8
0
100
AcDbLine
10
2.3682638068865223
20
3.1999999999999997
30
0
11
2.8750000000000004
21
3.1999999999999997
31
0
0
LINE
5
133
100
AcDbEntity
8
0
100
AcDbLine
10
2.8750000000000004
20
3.1999999999999997
30
0
11
2.8750000000000004
21
0.019685039370079017
31
0
0
LINE
5
134
100
AcDbEntity
8
0
100
AcDbLine
10
2.8750000000000004
20
0.019685039370079017
30
0
11
2.8946850393700796
21
0
31
0
0
ENDSEC
0
SECTION
2
OBJECTS
0
DICTIONARY
5
C
100
AcDbDictionary
3
ACAD_GROUP
350
D
3
ACAD_MLINESTYLE
350
17
0
DICTIONARY
5
D
100
AcDbDictionary
0
DICTIONARY
5
1A
330
C
100
AcDbDictionary
0
DICTIONARY
5
17
100
AcDbDictionary
0
ENDSEC
0
EOF
