0
SECTION
2
HEADER
9
$INSUNITS
70
1
9
$ACADVER
1
AC1014
9
$HANDSEED
5
FFFF
0
ENDSEC
0
SECTION
2
TABLES
0
TABLE
2
VPORT
5
8
100
AcDbSymbolTable
0
ENDTAB
0
TABLE
2
LTYPE
5
5
100
AcDbSymbolTable
0
LTYPE
5
14
100
AcDbSymbolTableRecord
100
AcDbLinetypeTableRecord
2
BYBLOCK
70
0
0
LTYPE
5
15
100
AcDbSymbolTableRecord
100
AcDbLinetypeTableRecord
2
BYLAYER
70
0
0
LTYPE
5
16
100
AcDbSymbolTableRecord
100
AcDbLinetypeTableRecord
2
DASHED
70
0
3
Dashed __ __ __ __ __ __ __ __ __ __ __ __ __ _
72
65
73
2
40
0.75
49
0.5
74
0
49
-0.25
74
0
0
ENDTAB
0
TABLE
2
LAYER
5
2
100
AcDbSymbolTable
70
2
0
LAYER
5
50
100
AcDbSymbolTableRecord
100
AcDbLayerTableRecord
2
0
70
0
62
7
6
CONTINUOUS
0
ENDTAB
0
TABLE
2
STYLE
5
3
100
AcDbSymbolTable
70
1
0
STYLE
5
11
100
AcDbSymbolTableRecord
100
AcDbTextStyleTableRecord
2
STANDARD
70
0
0
ENDTAB
0
TABLE
2
VIEW
5
6
100
AcDbSymbolTable
70
0
0
ENDTAB
0
TABLE
2
UCS
5
7
100
AcDbSymbolTable
70
0
0
ENDTAB
0
TABLE
2
APPID
5
9
100
AcDbSymbolTable
70
2
0
APPID
5
12
100
AcDbSymbolTableRecord
100
AcDbRegAppTableRecord
2
ACAD
70
0
0
ENDTAB
0
TABLE
2
DIMSTYLE
5
A
100
AcDbSymbolTable
70
1
0
ENDTAB
0
TABLE
2
BLOCK_RECORD
5
1
100
AcDbSymbolTable
70
1
0
BLOCK_RECORD
5
1F
100
AcDbSymbolTableRecord
100
AcDbBlockTableRecord
2
*MODEL_SPACE
0
BLOCK_RECORD
5
1B
100
AcDbSymbolTableRecord
100
AcDbBlockTableRecord
2
*PAPER_SPACE
0
ENDTAB
0
ENDSEC
0
SECTION
2
BLOCKS
0
BLOCK
5
20
100
AcDbEntity
100
AcDbBlockBegin
2
*MODEL_SPACE
0
ENDBLK
5
21
100
AcDbEntity
100
AcDbBlockEnd
0
BLOCK
5
1C
100
AcDbEntity
100
AcDbBlockBegin
2
*PAPER_SPACE
0
ENDBLK
5
1D
100
AcDbEntity
100
AcDbBlockEnd
0
ENDSEC
0
SECTION
2
ENTITIES
0
LINE
5
100
100
AcDbEntity
8
0
100
AcDbLine
10
3.2946850393700795
20
0
30
0
11
4.5053149606299217
21
0
31
0
0
LINE
5
101
100
AcDbEntity
8
0
100
AcDbLine
10
4.5053149606299217
20
0
30
0
11
4.5250000000000004
21
0.01968503937007874
31
0
0
LINE
5
102
100
AcDbEntity
8
0
100
AcDbLine
10
4.5250000000000004
20
0.01968503937007874
30
0
11
4.5250000000000004
21
3.1989999999999998
31
0
0
LINE
5
103
100
AcDbEntity
8
0
100
AcDbLine
10
4.5250000000000004
20
3.1989999999999998
30
0
11
5.3560528623758046
21
3.1989999999999998
31
0
0
LINE
5
104
100
AcDbEntity
8
0
100
AcDbLine
10
5.3560528623758046
20
3.1989999999999998
30
0
11
5.4061101310402924
21
3.2368917810550979
31
0
0
LINE
5
105
100
AcDbEntity
8
0
100
AcDbLine
10
5.4061101310402924
20
3.2368917810550979
30
0
11
5.5453785006358585
21
3.7306723357173142
31
0
0
ELLIPSE
5
106
100
AcDbEntity
8
0
100
AcDbEllipse
10
5.5509384533833437
20
3.7601420649755002
30
0
11
0.019202042813659399
21
-0.023049545587329748
31
0.0
40
0.99941943360284247
41
5.4018387020161081
42
6.8842197808920425
0
LINE
5
107
100
AcDbEntity
8
0
100
AcDbLine
10
5.5798022161958034
20
3.7519843011251766
30
0
11
5.7398972022571488
21
4.3196063049267348
31
0
0
ELLIPSE
5
108
100
AcDbEntity
8
0
100
AcDbEllipse
10
5.71103343944469
20
4.3277640687770589
30
0
11
0.019202042813656645
21
-0.023049545587331834
31
0.0
40
0.99941943360284302
41
0.60103447371254592
42
1.2340868629263921
0
ELLIPSE
5
109
100
AcDbEntity
8
0
100
AcDbEllipse
10
5.6209167450564657
20
3.8526280490891387
30
0
11
0.32003404689414339
21
-0.3841590931223125
31
0.0
40
0.99941943360284247
41
2.2079707294109783
42
2.3594536950971934
0
ELLIPSE
5
110
100
AcDbEntity
8
0
100
AcDbEllipse
10
5.7434157276283075
20
5.2528745012259668
30
0
11
0.57990169297223015
21
-0.69609627673759367
31
0.0
40
0.99941943360284269
41
5.1258005595081411
42
5.5010463486869217
0
ELLIPSE
5
111
100
AcDbEntity
8
0
100
AcDbEllipse
10
5.1162765809861153
20
3.9952544736001401
30
0
11
0.32003404689428155
21
-0.38415909312219743
31
0.0
40
0.99941943360284269
41
1.9842079059180497
42
2.0042712049407827
0
ELLIPSE
5
112
100
AcDbEntity
8
0
100
AcDbEllipse
10
5.743320817442652
20
5.2527477771004003
30
0
11
0.57990169297241978
21
-0.69609627673743568
31
0.0
40
0.99941943360284302
41
4.7854613553689758
42
5.1147599481351698
0
ELLIPSE
5
113
100
AcDbEntity
8
0
100
AcDbEllipse
10
4.7322756368623402
20
4.2768680862767674
30
0
11
0.32003404689417125
21
-0.38415909312228902
31
0.0
40
0.99941943360284302
41
1.643868701779442
42
1.6602217165440041
0
ELLIPSE
5
114
100
AcDbEntity
8
0
100
AcDbEllipse
10
5.7432464625456205
20
5.2526755054263212
30
0
11
0.57990169297246064
21
-0.69609627673740193
31
0.0
40
0.99941943360284291
41
4.445122151230021
42
4.7764363930888161
0
ELLIPSE
5
115
100
AcDbEntity
8
0
100
AcDbEllipse
10
4.4642793360202413
20
4.6704861592830209
30
0
11
0.320034046894279
21
-0.38415909312219915
31
0.0
40
0.99941943360284269
41
1.3035294976402694
42
1.3143269964474524
0
ELLIPSE
5
116
100
AcDbEntity
8
0
100
AcDbEllipse
10
5.7432011927092583
20
5.2526659769946527
30
0
11
0.57990169297241678
21
-0.69609627673743824
31
0.0
40
0.99941943360284247
41
4.1047829470911905
42
4.4391744770076382
0
ELLIPSE
5
117
100
AcDbEntity
8
0
100
AcDbEllipse
10
4.3430314148780456
20
5.1309540011252839
30
0
11
0.32003404689424514
21
-0.38415909312222735
31
0.0
40
0.99941943360284247
41
0.96319029350146201
42
1.114673259187672
0
ELLIPSE
5
118
100
AcDbEntity
8
0
100
AcDbEllipse
10
4.8181691481112336
20
5.2208087151137423
30
0
11
0.019202042813653047
21
-0.02304954558733505
31
0.0
40
0.99941943360284247
41
2.0885571256719375
42
2.7216095148857602
0
LINE
5
119
100
AcDbEntity
8
0
100
AcDbLine
10
4.8100287250911657
20
5.2496801512174569
30
0
11
2.9899712749088359
21
5.2496801512174569
31
0
0
ELLIPSE
5
120
100
AcDbEntity
8
0
100
AcDbEllipse
10
2.9818308518887675
20
5.2208087151137423
30
0
11
-0.019202042813653047
21
-0.02304954558733505
31
0.0
40
0.99941943360284247
41
3.5615757922937923
42
4.1946281815076842
0
ELLIPSE
5
121
100
AcDbEntity
8
0
100
AcDbEllipse
10
3.456968585121956
20
5.1309540011252839
30
0
11
-0.32003404689424514
21
-0.38415909312222735
31
0.0
40
0.99941943360284247
41
5.1685120479919124
42
5.319995013678124
0
ELLIPSE
5
122
100
AcDbEntity
8
0
100
AcDbEllipse
10
2.0567988072907428
20
5.2526659769946527
30
0
11
-0.57990169297241678
21
-0.69609627673743824
31
0.0
40
0.99941943360284247
41
1.844010830171948
42
2.1784023600883957
0
ELLIPSE
5
123
100
AcDbEntity
8
0
100
AcDbEllipse
10
3.3357206639797603
20
4.6704861592830209
30
0
11
-0.320034046894279
21
-0.38415909312219915
31
0.0
40
0.99941943360284269
41
4.9688583107321325
42
4.9796558095393149
0
ELLIPSE
5
124
100
AcDbEntity
8
0
100
AcDbEllipse
10
2.0567535374543811
20
5.2526755054263212
30
0
11
-0.57990169297246064
21
-0.69609627673740193
31
0.0
40
0.99941943360284291
41
1.5067489140907708
42
1.8380631559495657
0
ELLIPSE
5
125
100
AcDbEntity
8
0
100
AcDbEllipse
10
3.0677243631376609
20
4.2768680862767674
30
0
11
-0.32003404689417125
21
-0.38415909312228902
31
0.0
40
0.99941943360284302
41
4.622963590635579
42
4.6393166054001433
0
ELLIPSE
5
126
100
AcDbEntity
8
0
100
AcDbEllipse
10
2.0566791825573492
20
5.2527477771004003
30
0
11
-0.57990169297241978
21
-0.69609627673743568
31
0.0
40
0.99941943360284302
41
1.1684253590444189
42
1.4977239518106118
0
ELLIPSE
5
127
100
AcDbEntity
8
0
100
AcDbEllipse
10
2.6837234190138863
20
3.9952544736001401
30
0
11
-0.32003404689428155
21
-0.38415909312219743
31
0.0
40
0.9994194336028428
41
4.2789141022388009
42
4.2989774012615367
0
ELLIPSE
5
128
100
AcDbEntity
8
0
100
AcDbEllipse
10
2.0565842723716932
20
5.2528745012259668
30
0
11
-0.57990169297223015
21
-0.69609627673759367
31
0.0
40
0.99941943360284269
41
0.78213895849266557
42
1.1573847476714447
0
ELLIPSE
5
129
100
AcDbEntity
8
0
100
AcDbEllipse
10
2.1790832549435355
20
3.8526280490891387
30
0
11
-0.32003404689414339
21
-0.3841590931223125
31
0.0
40
0.99941943360284247
41
3.9237316120823924
42
4.075214577768608
0
ELLIPSE
5
130
100
AcDbEntity
8
0
100
AcDbEllipse
10
2.0889665605553112
20
4.3277640687770589
30
0
11
-0.019202042813656645
21
-0.023049545587331834
31
0.0
40
0.99941943360284302
41
5.0490984442531657
42
5.6821508334670296
0
LINE
5
131
100
AcDbEntity
8
0
100
AcDbLine
10
2.0601027977428523
20
4.3196063049267348
30
0
11
2.2201977838041986
21
3.7519843011251766
31
0
0
ELLIPSE
5
132
100
AcDbEntity
8
0
100
AcDbEllipse
10
2.2490615466166575
20
3.7601420649755002
30
0
11
-0.019202042813659399
21
-0.023049545587329748
31
0.0
40
0.9994194336028428
41
5.6821508334671567
42
7.1645319123430431
0
LINE
5
133
100
AcDbEntity
8
0
100
AcDbLine
10
2.2546214993641431
20
3.7306723357173142
30
0
11
2.3938898689597092
21
3.2368917810550979
31
0
0
LINE
5
134
100
AcDbEntity
8
0
100
AcDbLine
10
2.3938898689597092
20
3.2368917810550979
30
0
11
2.4439471376241961
21
3.1989999999999998
31
0
0
LINE
5
135
100
AcDbEntity
8
0
100
AcDbLine
10
2.4439471376241961
20
3.1989999999999998
30
0
11
3.2750000000000004
21
3.1989999999999998
31
0
0
LINE
5
136
100
AcDbEntity
8
0
100
AcDbLine
10
3.2750000000000004
20
3.1989999999999998
30
0
11
3.2750000000000004
21
0.019685039370079017
31
0
0
LINE
5
137
100
AcDbEntity
8
0
100
AcDbLine
10
3.2750000000000004
20
0.019685039370079017
30
0
11
3.2946850393700795
21
0
31
0
0
ENDSEC
0
SECTION
2
OBJECTS
0
DICTIONARY
5
C
100
AcDbDictionary
3
ACAD_GROUP
350
D
3
ACAD_MLINESTYLE
350
17
0
DICTIONARY
5
D
100
AcDbDictionary
0
DICTIONARY
5
1A
330
C
100
AcDbDictionary
0
DICTIONARY
5
17
100
AcDbDictionary
0
ENDSEC
0
EOF
