0
SECTION
2
HEADER
9
$INSUNITS
70
1
9
$ACADVER
1
AC1014
9
$HANDSEED
5
FFFF
0
ENDSEC
0
SECTION
2
TABLES
0
TABLE
2
VPORT
5
8
100
AcDbSymbolTable
0
ENDTAB
0
TABLE
2
LTYPE
5
5
100
AcDbSymbolTable
0
LTYPE
5
14
100
AcDbSymbolTableRecord
100
AcDbLinetypeTableRecord
2
BYBLOCK
70
0
0
LTYPE
5
15
100
AcDbSymbolTableRecord
100
AcDbLinetypeTableRecord
2
BYLAYER
70
0
0
LTYPE
5
16
100
AcDbSymbolTableRecord
100
AcDbLinetypeTableRecord
2
DASHED
70
0
3
Dashed __ __ __ __ __ __ __ __ __ __ __ __ __ _
72
65
73
2
40
0.75
49
0.5
74
0
49
-0.25
74
0
0
ENDTAB
0
TABLE
2
LAYER
5
2
100
AcDbSymbolTable
70
2
0
LAYER
5
50
100
AcDbSymbolTableRecord
100
AcDbLayerTableRecord
2
0
70
0
62
7
6
CONTINUOUS
0
ENDTAB
0
TABLE
2
STYLE
5
3
100
AcDbSymbolTable
70
1
0
STYLE
5
11
100
AcDbSymbolTableRecord
100
AcDbTextStyleTableRecord
2
STANDARD
70
0
0
ENDTAB
0
TABLE
2
VIEW
5
6
100
AcDbSymbolTable
70
0
0
ENDTAB
0
TABLE
2
UCS
5
7
100
AcDbSymbolTable
70
0
0
ENDTAB
0
TABLE
2
APPID
5
9
100
AcDbSymbolTable
70
2
0
APPID
5
12
100
AcDbSymbolTableRecord
100
AcDbRegAppTableRecord
2
ACAD
70
0
0
ENDTAB
0
TABLE
2
DIMSTYLE
5
A
100
AcDbSymbolTable
70
1
0
ENDTAB
0
TABLE
2
BLOCK_RECORD
5
1
100
AcDbSymbolTable
70
1
0
BLOCK_RECORD
5
1F
100
AcDbSymbolTableRecord
100
AcDbBlockTableRecord
2
*MODEL_SPACE
0
BLOCK_RECORD
5
1B
100
AcDbSymbolTableRecord
100
AcDbBlockTableRecord
2
*PAPER_SPACE
0
ENDTAB
0
ENDSEC
0
SECTION
2
BLOCKS
0
BLOCK
5
20
100
AcDbEntity
100
AcDbBlockBegin
2
*MODEL_SPACE
0
ENDBLK
5
21
100
AcDbEntity
100
AcDbBlockEnd
0
BLOCK
5
1C
100
AcDbEntity
100
AcDbBlockBegin
2
*PAPER_SPACE
0
ENDBLK
5
1D
100
AcDbEntity
100
AcDbBlockEnd
0
ENDSEC
0
SECTION
2
ENTITIES
0
LINE
5
100
100
AcDbEntity
8
0
100
AcDbLine
10
1.2999999999999998
20
0.01968503937007874
30
0
11
1.3196850393700787
21
0
31
0
0
LINE
5
101
100
AcDbEntity
8
0
100
AcDbLine
10
1.3196850393700787
20
0
30
0
11
2.2803149606299211
21
0
31
0
0
LINE
5
102
100
AcDbEntity
8
0
100
AcDbLine
10
2.2803149606299211
20
0
30
0
11
2.2999999999999998
21
0.01968503937007874
31
0
0
LINE
5
103
100
AcDbEntity
8
0
100
AcDbLine
10
2.2999999999999998
20
0.01968503937007874
30
0
11
2.2999999999999998
21
3.2031496062992115
31
0
0
LINE
5
104
100
AcDbEntity
8
0
100
AcDbLine
10
2.2999999999999998
20
3.2031496062992115
30
0
11
2.2603957787762643
21
3.2427538275229471
31
0
0
LINE
5
105
100
AcDbEntity
8
0
100
AcDbLine
10
2.2603957787762643
20
3.2427538275229471
30
0
11
2.2603957787762643
21
3.4000535351036096
31
0
0
LINE
5
106
100
AcDbEntity
8
0
100
AcDbLine
10
2.2603957787762643
20
3.4000535351036096
30
0
11
2.5722185342793136
21
4.079226807534643
31
0
0
ELLIPSE
5
107
100
AcDbEntity
8
0
100
AcDbEllipse
10
2.5453215721099918
20
4.0925076753571039
30
0
11
0.019202042813653866
21
-0.023049545587334245
31
0.0
40
0.9994194336028428
41
0.41777490225324809
42
1.6490088483660044
0
ELLIPSE
5
108
100
AcDbEntity
8
0
100
AcDbEllipse
10
2.5010766532631847
20
3.7443722510483961
30
0
11
0.24002553517069483
21
-0.28811931984166217
31
0.0
40
0.99941943360284213
41
2.2705222046729538
42
2.3594536950968923
0
ELLIPSE
5
109
100
AcDbEntity
8
0
100
AcDbEllipse
10
2.5664210607517211
20
4.4913031465694653
30
0
11
-0.24002553517067943
21
0.28811931984167438
31
0.0
40
0.99941943360284258
41
1.6176887629993526
42
2.3594536950969389
0
ELLIPSE
5
110
100
AcDbEntity
8
0
100
AcDbEllipse
10
2.0136525430411867
20
3.9850468350622927
30
0
11
0.24002553517068753
21
-0.288119319841668
31
0.0
40
0.99941943360284202
41
1.6176887629993224
42
1.6324255563479333
0
ELLIPSE
5
111
100
AcDbEntity
8
0
100
AcDbEllipse
10
2.566362645276385
20
4.4912463677376309
30
0
11
-0.24002553517069847
21
0.28811931984165845
31
0.0
40
0.99941943360284269
41
0.96319029350141083
42
1.6029455213041983
0
ELLIPSE
5
112
100
AcDbEntity
8
0
100
AcDbEllipse
10
1.8194726499894642
20
4.4263217717902439
30
0
11
0.24002553517073247
21
-0.28811931984163036
31
0.0
40
0.99941943360284224
41
0.96319029350129604
42
1.052121783925229
0
ELLIPSE
5
113
100
AcDbEntity
8
0
100
AcDbEllipse
10
2.1675968870577753
20
4.4703724612733629
30
0
11
-0.019202042813655232
21
0.023049545587333239
31
0.0
40
0.99941943360284269
41
4.8152277938221406
42
6.0464617399348883
0
LINE
5
114
100
AcDbEntity
8
0
100
AcDbLine
10
2.1543327731898376
20
4.4972798176070414
30
0
11
1.4456672268101622
21
4.4972798176070414
31
0
0
ELLIPSE
5
115
100
AcDbEntity
8
0
100
AcDbEllipse
10
1.4324031129422243
20
4.4703724612733629
30
0
11
0.019202042813655232
21
0.023049545587333239
31
0.0
40
0.9994194336028428
41
0.23672356724465984
42
1.4679575133574005
0
ELLIPSE
5
116
100
AcDbEntity
8
0
100
AcDbEllipse
10
1.7805273500105356
20
4.4263217717902439
30
0
11
-0.24002553517073247
21
-0.28811931984163036
31
0.0
40
0.99941943360284224
41
5.2310635232543552
42
5.3199950136782892
0
ELLIPSE
5
117
100
AcDbEntity
8
0
100
AcDbEllipse
10
1.0336373547236146
20
4.4912463677376309
30
0
11
0.24002553517069847
21
0.28811931984165845
31
0.0
40
0.99941943360284269
41
4.6802397858753899
42
5.3199950136781791
0
ELLIPSE
5
118
100
AcDbEntity
8
0
100
AcDbEllipse
10
1.5863474569588127
20
3.9850468350622927
30
0
11
-0.24002553517068753
21
-0.288119319841668
31
0.0
40
0.99941943360284224
41
4.6507597508316492
42
4.6654965441802609
0
ELLIPSE
5
119
100
AcDbEntity
8
0
100
AcDbEllipse
10
1.0335789392482788
20
4.4913031465694653
30
0
11
0.24002553517067943
21
0.28811931984167438
31
0.0
40
0.99941943360284258
41
3.9237316120826455
42
4.6654965441802361
0
ELLIPSE
5
120
100
AcDbEntity
8
0
100
AcDbEllipse
10
1.0989233467368151
20
3.7443722510483961
30
0
11
-0.24002553517069483
21
-0.28811931984166217
31
0.0
40
0.99941943360284236
41
3.9237316120826944
42
4.0126631025066324
0
ELLIPSE
5
121
100
AcDbEntity
8
0
100
AcDbEllipse
10
1.0546784278900081
20
4.0925076753571039
30
0
11
-0.019202042813653866
21
-0.023049545587334245
31
0.0
40
0.9994194336028428
41
4.6341764588135659
42
5.8654104049263358
0
LINE
5
122
100
AcDbEntity
8
0
100
AcDbLine
10
1.0277814657206865
20
4.079226807534643
30
0
11
1.3396042212237356
21
3.4000535351036096
31
0
0
LINE
5
123
100
AcDbEntity
8
0
100
AcDbLine
10
1.3396042212237356
20
3.4000535351036096
30
0
11
1.3396042212237356
21
3.2427538275229471
31
0
0
LINE
5
124
100
AcDbEntity
8
0
100
AcDbLine
10
1.3396042212237356
20
3.2427538275229471
30
0
11
1.2999999999999998
21
3.2031496062992115
31
0
0
LINE
5
125
100
AcDbEntity
8
0
100
AcDbLine
10
1.2999999999999998
20
3.2031496062992115
30
0
11
1.2999999999999998
21
0.01968503937007874
31
0
0
ENDSEC
0
SECTION
2
OBJECTS
0
DICTIONARY
5
C
100
AcDbDictionary
3
ACAD_GROUP
350
D
3
ACAD_MLINESTYLE
350
17
0
DICTIONARY
5
D
100
AcDbDictionary
0
DICTIONARY
5
1A
330
C
100
AcDbDictionary
0
DICTIONARY
5
17
100
AcDbDictionary
0
ENDSEC
0
EOF
