0
SECTION
2
HEADER
9
$INSUNITS
70
1
9
$ACADVER
1
AC1014
9
$HANDSEED
5
FFFF
0
ENDSEC
0
SECTION
2
TABLES
0
TABLE
2
VPORT
5
8
100
AcDbSymbolTable
0
ENDTAB
0
TABLE
2
LTYPE
5
5
100
AcDbSymbolTable
0
LTYPE
5
14
100
AcDbSymbolTableRecord
100
AcDbLinetypeTableRecord
2
BYBLOCK
70
0
0
LTYPE
5
15
100
AcDbSymbolTableRecord
100
AcDbLinetypeTableRecord
2
BYLAYER
70
0
0
LTYPE
5
16
100
AcDbSymbolTableRecord
100
AcDbLinetypeTableRecord
2
DASHED
70
0
3
Dashed __ __ __ __ __ __ __ __ __ __ __ __ __ _
72
65
73
2
40
0.75
49
0.5
74
0
49
-0.25
74
0
0
ENDTAB
0
TABLE
2
LAYER
5
2
100
AcDbSymbolTable
70
2
0
LAYER
5
50
100
AcDbSymbolTableRecord
100
AcDbLayerTableRecord
2
0
70
0
62
7
6
CONTINUOUS
0
ENDTAB
0
TABLE
2
STYLE
5
3
100
AcDbSymbolTable
70
1
0
STYLE
5
11
100
AcDbSymbolTableRecord
100
AcDbTextStyleTableRecord
2
STANDARD
70
0
0
ENDTAB
0
TABLE
2
VIEW
5
6
100
AcDbSymbolTable
70
0
0
ENDTAB
0
TABLE
2
UCS
5
7
100
AcDbSymbolTable
70
0
0
ENDTAB
0
TABLE
2
APPID
5
9
100
AcDbSymbolTable
70
2
0
APPID
5
12
100
AcDbSymbolTableRecord
100
AcDbRegAppTableRecord
2
ACAD
70
0
0
ENDTAB
0
TABLE
2
DIMSTYLE
5
A
100
AcDbSymbolTable
70
1
0
ENDTAB
0
TABLE
2
BLOCK_RECORD
5
1
100
AcDbSymbolTable
70
1
0
BLOCK_RECORD
5
1F
100
AcDbSymbolTableRecord
100
AcDbBlockTableRecord
2
*MODEL_SPACE
0
BLOCK_RECORD
5
1B
100
AcDbSymbolTableRecord
100
AcDbBlockTableRecord
2
*PAPER_SPACE
0
ENDTAB
0
ENDSEC
0
SECTION
2
BLOCKS
0
BLOCK
5
20
100
AcDbEntity
100
AcDbBlockBegin
2
*MODEL_SPACE
0
ENDBLK
5
21
100
AcDbEntity
100
AcDbBlockEnd
0
BLOCK
5
1C
100
AcDbEntity
100
AcDbBlockBegin
2
*PAPER_SPACE
0
ENDBLK
5
1D
100
AcDbEntity
100
AcDbBlockEnd
0
ENDSEC
0
SECTION
2
ENTITIES
0
LINE
5
100
100
AcDbEntity
8
0
100
AcDbLine
10
3.8600994204874404
20
4.9986420100307054
30
0
11
2.3399005795125603
21
4.9986420100307054
31
0
0
ELLIPSE
5
101
100
AcDbEntity
8
0
100
AcDbEllipse
10
2.3297665518410486
20
4.9704076598141169
30
0
11
0.019202042813651909
21
0.023049545587336004
31
0.0
40
0.99941943360284236
41
0.35016996862415439
42
1.3746476697795396
0
ELLIPSE
5
102
100
AcDbEntity
8
0
100
AcDbEllipse
10
2.7979245819462428
20
4.8815176684282919
30
0
11
-0.32003404689424247
21
-0.38415909312222984
31
0.0
40
0.99941943360284247
41
5.1802977752382198
42
5.3199950136781124
0
ELLIPSE
5
103
100
AcDbEntity
8
0
100
AcDbEllipse
10
1.6467181358773375
20
4.9815881123151975
30
0
11
-0.41988466952528825
21
-0.50401673017632898
31
0.0
40
0.99941943360284258
41
1.746647478899541
42
2.1784023600884108
0
ELLIPSE
5
104
100
AcDbEntity
8
0
100
AcDbEllipse
10
2.6449171691732989
20
4.3999642751481751
30
0
11
-0.32003404689428688
21
-0.38415909312219254
31
0.0
40
0.99941943360284269
41
4.8675679415093205
42
4.8792993775496623
0
ELLIPSE
5
105
100
AcDbEntity
8
0
100
AcDbEllipse
10
1.6466655183269252
20
4.9816181619198066
30
0
11
-0.41988466952531994
21
-0.50401673017630244
31
0.0
40
0.99941943360284247
41
1.3101423677726176
42
1.7377067239599049
0
ELLIPSE
5
106
100
AcDbEntity
8
0
100
AcDbEllipse
10
2.3011237643783242
20
4.0296306648236992
30
0
11
-0.32003404689425474
21
-0.38415909312221952
31
0.0
40
0.9994194336028428
41
4.421353659853569
42
4.4386037414210078
0
ELLIPSE
5
107
100
AcDbEntity
8
0
100
AcDbEllipse
10
1.6465825263145906
20
4.9817199224650608
30
0
11
-0.41988466952525783
21
-0.50401673017635429
31
0.0
40
0.99941943360284258
41
0.78213895849288517
42
1.2970110878312158
0
ELLIPSE
5
108
100
AcDbEntity
8
0
100
AcDbEllipse
10
1.7473000397235874
20
3.8304504355019215
30
0
11
-0.32003404689421139
21
-0.38415909312225571
31
0.0
40
0.99941943360284236
41
3.9237316120825718
42
4.0634288505224685
0
ELLIPSE
5
109
100
AcDbEntity
8
0
100
AcDbEllipse
10
1.6581519535935456
20
4.298606574332295
30
0
11
-0.019202042813651947
21
-0.023049545587335758
31
0.0
40
0.99941943360284324
41
4.7274863023911768
42
5.7519640035466555
0
LINE
5
110
100
AcDbEntity
8
0
100
AcDbLine
10
1.6299263486612758
20
4.2884553615675101
30
0
11
1.8292288928676741
21
3.7334075076220699
31
0
0
ELLIPSE
5
111
100
AcDbEntity
8
0
100
AcDbEllipse
10
1.8574544977999441
20
3.7435587203868539
30
0
11
-0.019202042813656735
21
-0.023049545587331983
31
0.0
40
0.99941943360284302
41
5.7519640035468376
42
7.2591549138020168
0
LINE
5
112
100
AcDbEntity
8
0
100
AcDbLine
10
1.8657739419449824
20
3.7147477817792924
30
0
11
1.8643098808199254
21
3.7188359687608612
31
0
0
LINE
5
113
100
AcDbEntity
8
0
100
AcDbLine
10
1.8643098808199254
20
3.7188359687608612
30
0
11
1.8657811277749483
21
3.7147498619271255
31
0
0
ELLIPSE
5
114
100
AcDbEntity
8
0
100
AcDbEllipse
10
1.8574544977999441
20
3.7435587203868539
30
0
11
-0.019202042813656735
21
-0.023049545587331983
31
0.0
40
0.99941943360284302
41
0.97596960662243071
42
0.97621901384434895
0
LINE
5
115
100
AcDbEntity
8
0
100
AcDbLine
10
1.8657739419449824
20
3.7147477817792924
30
0
11
2.0368456825509198
21
3.2370537491396245
31
0
0
LINE
5
116
100
AcDbEntity
8
0
100
AcDbLine
10
2.0368456825509198
20
3.2370537491396245
30
0
11
2.0895207518849852
21
3.1999999999999997
31
0
0
LINE
5
117
100
AcDbEntity
8
0
100
AcDbLine
10
2.0895207518849852
20
3.1999999999999997
30
0
11
2.4750000000000001
21
3.1999999999999997
31
0
0
LINE
5
118
100
AcDbEntity
8
0
100
AcDbLine
10
2.4750000000000001
20
3.1999999999999997
30
0
11
2.4750000000000001
21
0.039370078740157334
31
0
0
LINE
5
119
100
AcDbEntity
8
0
100
AcDbLine
10
2.4750000000000001
20
0.039370078740157334
30
0
11
2.5143700787401579
21
0
31
0
0
LINE
5
120
100
AcDbEntity
8
0
100
AcDbLine
10
2.5143700787401579
20
0
30
0
11
3.6856299212598427
21
0
31
0
0
LINE
5
121
100
AcDbEntity
8
0
100
AcDbLine
10
3.6856299212598427
20
0
30
0
11
3.7250000000000001
21
0.03937007874015748
31
0
0
LINE
5
122
100
AcDbEntity
8
0
100
AcDbLine
10
3.7250000000000001
20
0.03937007874015748
30
0
11
3.7250000000000001
21
3.1999999999999997
31
0
0
LINE
5
123
100
AcDbEntity
8
0
100
AcDbLine
10
3.7250000000000001
20
3.1999999999999997
30
0
11
4.1104792481150154
21
3.1999999999999997
31
0
0
LINE
5
124
100
AcDbEntity
8
0
100
AcDbLine
10
4.1104792481150154
20
3.1999999999999997
30
0
11
4.1631543174490817
21
3.2370537491396245
31
0
0
LINE
5
125
100
AcDbEntity
8
0
100
AcDbLine
10
4.1631543174490817
20
3.2370537491396245
30
0
11
4.3342260580550178
21
3.7147477817792915
31
0
0
ELLIPSE
5
126
100
AcDbEntity
8
0
100
AcDbEllipse
10
4.342545502200057
20
3.7435587203868539
30
0
11
0.019202042813656735
21
-0.023049545587331983
31
0.0
40
0.99941943360284302
41
5.3069662933352211
42
5.3072157005571476
0
LINE
5
127
100
AcDbEntity
8
0
100
AcDbLine
10
4.334218872225053
20
3.7147498619271255
30
0
11
4.3356901191800752
21
3.7188359687608612
31
0
0
LINE
5
128
100
AcDbEntity
8
0
100
AcDbLine
10
4.3356901191800752
20
3.7188359687608612
30
0
11
4.3342260580550178
21
3.7147477817792915
31
0
0
ELLIPSE
5
129
100
AcDbEntity
8
0
100
AcDbEllipse
10
4.342545502200057
20
3.7435587203868539
30
0
11
0.019202042813656735
21
-0.023049545587331983
31
0.0
40
0.99941943360284302
41
5.3072157005571476
42
6.8144066108123189
0
LINE
5
130
100
AcDbEntity
8
0
100
AcDbLine
10
4.3707711071323265
20
3.7334075076220699
30
0
11
4.5700736513387241
21
4.2884553615675101
31
0
0
ELLIPSE
5
131
100
AcDbEntity
8
0
100
AcDbEllipse
10
4.5418480464064546
20
4.298606574332295
30
0
11
0.019202042813651947
21
-0.023049545587335758
31
0.0
40
0.9994194336028428
41
0.53122130363299047
42
1.5556990047883932
0
ELLIPSE
5
132
100
AcDbEntity
8
0
100
AcDbEllipse
10
4.4526999602764139
20
3.8304504355019215
30
0
11
0.32003404689421139
21
-0.38415909312225571
31
0.0
40
0.99941943360284236
41
2.2197564566571164
42
2.3594536950970131
0
ELLIPSE
5
133
100
AcDbEntity
8
0
100
AcDbEllipse
10
4.5534174736854096
20
4.9817199224650608
30
0
11
0.41988466952525783
21
-0.50401673017635429
31
0.0
40
0.99941943360284258
41
4.9861742193483716
42
5.5010463486867041
0
ELLIPSE
5
134
100
AcDbEntity
8
0
100
AcDbEllipse
10
3.8988762356216764
20
4.0296306648236992
30
0
11
0.32003404689425474
21
-0.38415909312221952
31
0.0
40
0.9994194336028428
41
1.844581565758578
42
1.8618316473260161
0
ELLIPSE
5
135
100
AcDbEntity
8
0
100
AcDbEllipse
10
4.5533344816730752
20
4.9816181619198066
30
0
11
0.41988466952531994
21
-0.50401673017630244
31
0.0
40
0.99941943360284247
41
4.5454785832196816
42
4.9730429394069695
0
ELLIPSE
5
136
100
AcDbEntity
8
0
100
AcDbEllipse
10
3.5550828308267013
20
4.3999642751481751
30
0
11
0.32003404689428688
21
-0.38415909312219254
31
0.0
40
0.99941943360284247
41
1.4038859296299253
42
1.415617365670266
0
ELLIPSE
5
137
100
AcDbEntity
8
0
100
AcDbEllipse
10
4.5532818641226633
20
4.9815881123151975
30
0
11
0.41988466952528825
21
-0.50401673017632898
31
0.0
40
0.99941943360284258
41
4.1047829470911754
42
4.5365378282800464
0
ELLIPSE
5
138
100
AcDbEntity
8
0
100
AcDbEllipse
10
3.4020754180537578
20
4.8815176684282919
30
0
11
0.32003404689424247
21
-0.38415909312222984
31
0.0
40
0.99941943360284247
41
0.96319029350147189
42
1.1028875319413642
0
ELLIPSE
5
139
100
AcDbEntity
8
0
100
AcDbEllipse
10
3.870233448158952
20
4.9704076598141169
30
0
11
-0.019202042813651909
21
0.023049545587336004
31
0.0
40
0.99941943360284236
41
4.9085376373999878
42
5.9330153385554043
0
ENDSEC
0
SECTION
2
OBJECTS
0
DICTIONARY
5
C
100
AcDbDictionary
3
ACAD_GROUP
350
D
3
ACAD_MLINESTYLE
350
17
0
DICTIONARY
5
D
100
AcDbDictionary
0
DICTIONARY
5
1A
330
C
100
AcDbDictionary
0
DICTIONARY
5
17
100
AcDbDictionary
0
ENDSEC
0
EOF
