0
SECTION
2
HEADER
9
$INSUNITS
70
1
9
$ACADVER
1
AC1014
9
$HANDSEED
5
FFFF
0
ENDSEC
0
SECTION
2
TABLES
0
TABLE
2
VPORT
5
8
100
AcDbSymbolTable
0
ENDTAB
0
TABLE
2
LTYPE
5
5
100
AcDbSymbolTable
0
LTYPE
5
14
100
AcDbSymbolTableRecord
100
AcDbLinetypeTableRecord
2
BYBLOCK
70
0
0
LTYPE
5
15
100
AcDbSymbolTableRecord
100
AcDbLinetypeTableRecord
2
BYLAYER
70
0
0
LTYPE
5
16
100
AcDbSymbolTableRecord
100
AcDbLinetypeTableRecord
2
DASHED
70
0
3
Dashed __ __ __ __ __ __ __ __ __ __ __ __ __ _
72
65
73
2
40
0.75
49
0.5
74
0
49
-0.25
74
0
0
ENDTAB
0
TABLE
2
LAYER
5
2
100
AcDbSymbolTable
70
2
0
LAYER
5
50
100
AcDbSymbolTableRecord
100
AcDbLayerTableRecord
2
0
70
0
62
7
6
CONTINUOUS
0
ENDTAB
0
TABLE
2
STYLE
5
3
100
AcDbSymbolTable
70
1
0
STYLE
5
11
100
AcDbSymbolTableRecord
100
AcDbTextStyleTableRecord
2
STANDARD
70
0
0
ENDTAB
0
TABLE
2
VIEW
5
6
100
AcDbSymbolTable
70
0
0
ENDTAB
0
TABLE
2
UCS
5
7
100
AcDbSymbolTable
70
0
0
ENDTAB
0
TABLE
2
APPID
5
9
100
AcDbSymbolTable
70
2
0
APPID
5
12
100
AcDbSymbolTableRecord
100
AcDbRegAppTableRecord
2
ACAD
70
0
0
ENDTAB
0
TABLE
2
DIMSTYLE
5
A
100
AcDbSymbolTable
70
1
0
ENDTAB
0
TABLE
2
BLOCK_RECORD
5
1
100
AcDbSymbolTable
70
1
0
BLOCK_RECORD
5
1F
100
AcDbSymbolTableRecord
100
AcDbBlockTableRecord
2
*MODEL_SPACE
0
BLOCK_RECORD
5
1B
100
AcDbSymbolTableRecord
100
AcDbBlockTableRecord
2
*PAPER_SPACE
0
ENDTAB
0
ENDSEC
0
SECTION
2
BLOCKS
0
BLOCK
5
20
100
AcDbEntity
100
AcDbBlockBegin
2
*MODEL_SPACE
0
ENDBLK
5
21
100
AcDbEntity
100
AcDbBlockEnd
0
BLOCK
5
1C
100
AcDbEntity
100
AcDbBlockBegin
2
*PAPER_SPACE
0
ENDBLK
5
1D
100
AcDbEntity
100
AcDbBlockEnd
0
ENDSEC
0
SECTION
2
ENTITIES
0
ELLIPSE
5
100
100
AcDbEntity
8
0
100
AcDbEllipse
10
-0.48972050469690215
20
-4.7237807811785997
30
0
11
-0.048892541424292293
21
0.14180803712439535
31
0.0
40
0.99964172038556642
41
0
42
6.2831853071795862
0
ELLIPSE
5
101
100
AcDbEntity
8
0
100
AcDbEllipse
10
-0.43113078511009811
20
-4.374520431512404
30
0
11
-0.16297513808097047
21
0.47269345708127108
31
0.0
40
0.99964172038556653
41
1.6987561398502977
42
1.7841150243491084
0
ELLIPSE
5
102
100
AcDbEntity
8
0
100
AcDbEllipse
10
-0.84932655709444593
20
-4.6008213970206704
30
0
11
-0.0097785082848567476
21
0.02836160742487966
31
0.0
40
0.99964172038556687
41
6.2390679400647109
42
7.3750291741659417
0
LINE
5
103
100
AcDbEntity
8
0
100
AcDbLine
10
-0.85784516531354238
20
-4.5720562782160146
30
0
11
-0.29232776955033807
21
-4.4046012974365567
31
0
0
ELLIPSE
5
104
100
AcDbEntity
8
0
100
AcDbEllipse
10
-0.28380916133124146
20
-4.4333664162412134
30
0
11
-0.0097785082848570043
21
0.028361607424879545
31
0.0
40
0.99964172038556676
41
4.6682716132698419
42
6.2390679400647118
0
LINE
5
105
100
AcDbEntity
8
0
100
AcDbLine
10
-0.25505403951277333
20
-4.4248517562015799
30
0
11
-0.13011445229935845
21
-4.8467401653365272
31
0
0
ELLIPSE
5
106
100
AcDbEntity
8
0
100
AcDbEllipse
10
-0.15886957411782646
20
-4.8552548253761616
30
0
11
0.0097785082848562202
21
-0.028361607424879823
31
0.0
40
0.99964172038556676
41
6.2390679400647393
42
7.8098642668596074
0
LINE
5
107
100
AcDbEntity
8
0
100
AcDbLine
10
-0.15035096589872998
20
-4.8840199441808174
30
0
11
-0.71586836166193424
21
-5.0514749249602744
31
0
0
ELLIPSE
5
108
100
AcDbEntity
8
0
100
AcDbEllipse
10
-0.7243869698810308
20
-5.0227098061556195
30
0
11
0.0097785082848581058
21
-0.028361607424879146
31
0.0
40
0.99964172038556676
41
5.1031067059635395
42
6.2390679400646816
0
ELLIPSE
5
109
100
AcDbEntity
8
0
100
AcDbEllipse
10
-0.25039293106154958
20
-4.9848250388481068
30
0
11
-0.16297513808099115
21
0.47269345708135668
31
0.0
40
0.99964172038556665
41
1.2692428950108037
42
1.3546017795096073
0
ELLIPSE
5
110
100
AcDbEntity
8
0
100
AcDbEllipse
10
-1.4994086821493748
20
-5.0227588773702614
30
0
11
-0.24446270712139001
21
0.70904018562200066
31
0.0
40
0.99964172038556653
41
4.4108355486006996
42
4.9257076779390285
0
ELLIPSE
5
111
100
AcDbEntity
8
0
100
AcDbEllipse
10
-0.75485323588264774
20
-4.2780866113923981
30
0
11
-0.048892541424306171
21
0.14180803712439063
31
0.0
40
0.99964172038556653
41
0
42
6.2831853071795862
0
ELLIPSE
5
112
100
AcDbEntity
8
0
100
AcDbEllipse
10
-0.86997537852650231
20
-3.9431493455330644
30
0
11
-0.16297513808094988
21
0.47269345708127847
31
0.0
40
0.99964172038556653
41
2.1961749766687273
42
2.2815338611675378
0
ELLIPSE
5
113
100
AcDbEntity
8
0
100
AcDbEllipse
10
-1.1294978877032607
20
-4.3416524547927002
30
0
11
0.009778508284867541
21
-0.028361607424875944
31
0.0
40
0.99964172038556676
41
3.5948941232929403
42
4.730855357394212
0
LINE
5
114
100
AcDbEntity
8
0
100
AcDbLine
10
-1.1507049446602799
20
-4.320436020767958
30
0
11
-0.73365824098245436
21
-3.9033383256500116
31
0
0
ELLIPSE
5
115
100
AcDbEntity
8
0
100
AcDbEllipse
10
-0.71245118402543528
20
-3.9245547596747534
30
0
11
-0.0097785082848651228
21
0.028361607424876763
31
0.0
40
0.99964172038556642
41
5.1656904500879071
42
6.7364867768828098
0
LINE
5
116
100
AcDbEntity
8
0
100
AcDbLine
10
-0.69124541943164741
20
-3.9033464022958748
30
0
11
-0.38020858406203412
21
-4.2145207679920951
31
0
0
ELLIPSE
5
117
100
AcDbEntity
8
0
100
AcDbEllipse
10
-0.40141434865582215
20
-4.2357291253709723
30
0
11
-0.0097785082848568967
21
0.028361607424879594
31
0.0
40
0.99964172038556653
41
3.5948941232933027
42
5.1656904500881957
0
LINE
5
118
100
AcDbEntity
8
0
100
AcDbLine
10
-0.38020729169880296
20
-4.2569455593957146
30
0
11
-0.797253995376629
21
-4.6740432545136645
31
0
0
ELLIPSE
5
119
100
AcDbEntity
8
0
100
AcDbEllipse
10
-0.81846105233364796
20
-4.6528268204889223
30
0
11
0.0097785082848589784
21
-0.028361607424878844
31
0.0
40
0.99964172038556709
41
5.6005255427818881
42
6.7364867768830132
0
ELLIPSE
5
120
100
AcDbEntity
8
0
100
AcDbEllipse
10
-0.42002887711288911
20
-4.3932947985891193
30
0
11
-0.16297513808100961
21
0.47269345708135058
31
0.0
40
0.99964172038556631
41
1.766661731829148
42
1.8520206163279518
0
ELLIPSE
5
121
100
AcDbEntity
8
0
100
AcDbEllipse
10
-1.4994583166525155
20
-5.0227827334894251
30
0
11
-0.2444627071214735
21
0.70904018562197191
31
0.0
40
0.99964172038556642
41
4.9082543854189637
42
5.4231265147572918
0
ELLIPSE
5
122
100
AcDbEntity
8
0
100
AcDbEllipse
10
-1.2004970442410861
20
-4.0129106570937667
30
0
11
-0.048892541424269027
21
0.1418080371244034
31
0.0
40
0.99964172038556642
41
0
42
6.2831853071795862
0
ELLIPSE
5
123
100
AcDbEntity
8
0
100
AcDbEllipse
10
-1.4614293818313526
20
-3.7734738049491736
30
0
11
0.1629751380809796
21
-0.47269345708126786
31
0.0
40
0.99964172038556642
41
5.8351864670768405
42
5.9205453515756528
0
ELLIPSE
5
124
100
AcDbEntity
8
0
100
AcDbEllipse
10
-1.49937925421802
20
-4.2475955431736487
30
0
11
0.0097785082848655287
21
-0.028361607424876634
31
0.0
40
0.99964172038556676
41
4.092312960111407
42
5.2282741942126023
0
LINE
5
125
100
AcDbEntity
8
0
100
AcDbLine
10
-1.5281348951249742
20
-4.2390699313970899
30
0
11
-1.3606367309455039
21
-3.6734197279335161
31
0
0
ELLIPSE
5
126
100
AcDbEntity
8
0
100
AcDbEllipse
10
-1.3318810900385494
20
-3.6819453397100754
30
0
11
-0.0097785082848578734
21
0.028361607424879243
31
0.0
40
0.99964172038556653
41
5.6631092869065682
42
7.2339056137014301
0
LINE
5
127
100
AcDbEntity
8
0
100
AcDbLine
10
-1.3233642342328138
20
-3.65318346495769
30
0
11
-0.90161483426415212
21
-3.7782257710138842
31
0
0
ELLIPSE
5
128
100
AcDbEntity
8
0
100
AcDbEllipse
10
-0.91013169006988759
20
-3.8069876457662688
30
0
11
-0.0097785082848645625
21
0.02836160742487694
31
0.0
40
0.99964172038556653
41
4.0923129601114194
42
5.6631092869063275
0
LINE
5
129
100
AcDbEntity
8
0
100
AcDbLine
10
-0.88137604916293333
20
-3.8155132575428277
30
0
11
-1.0488742133424036
21
-4.381163461006401
31
0
0
ELLIPSE
5
130
100
AcDbEntity
8
0
100
AcDbEllipse
10
-1.0776298542493579
20
-4.3726378492298421
30
0
11
0.0097785082848587408
21
-0.028361607424878945
31
0.0
40
0.9996417203855662
41
6.0979443796002775
42
7.2339056137014373
0
ELLIPSE
5
131
100
AcDbEntity
8
0
100
AcDbEllipse
10
-0.85132586543057187
20
-3.9543602522787404
30
0
11
-0.16297513808099562
21
0.47269345708135563
31
0.0
40
0.99964172038556609
41
2.2640805686475631
42
2.349439453146366
0
ELLIPSE
5
132
100
AcDbEntity
8
0
100
AcDbEllipse
10
-1.499552241099821
20
-5.0228359525658473
30
0
11
-0.24446270712132134
21
0.70904018562202431
31
0.0
40
0.99964172038556665
41
5.4056732222375636
42
5.9205453515758908
0
LINE
5
133
100
AcDbEntity
8
0
100
AcDbLine
10
0.62500000000000022
20
-0.03937007874015748
30
0
11
-3.4967654318902565e-16
21
-0.03937007874015748
31
0
0
LINE
5
134
100
AcDbEntity
8
0
100
AcDbLine
10
-3.6718471091053212e-16
20
-0.03937007874015748
30
0
11
-0.62499999999999978
21
-0.03937007874015748
31
0
0
LINE
5
135
100
AcDbEntity
8
0
100
AcDbLine
10
-1.1480823376310039
20
-3.25
30
0
11
1.7483827159451283e-16
21
-3.25
31
0
0
SPLINE
5
136
100
AcDbEntity
8
0
100
AcDbSpline
70
4
71
2
72
6
73
3
74
0
42
0.000000001
43
0.0000000001
44
0.0000000001
40
0
40
0
40
0
40
0.62654969025994967
40
0.62654969025994967
40
0.62654969025994967
41
1
41
1.0010925893137201
41
1.0015377450329166
10
-1.2620972128356978
20
-3.4380830345633107
30
0
10
-1.2942600807328619
20
-3.5464328748916878
30
0
10
-1.3280956749412594
20
-3.6604613737436114
30
0
0
LINE
5
137
100
AcDbEntity
8
0
100
AcDbLine
10
-1.1480823376310039
20
-3.25
30
0
11
-1.2062661218435571
21
-3.25
31
0
0
LINE
5
138
100
AcDbEntity
8
0
100
AcDbLine
10
-1.2620972128356978
20
-3.4380830345633107
30
0
11
-1.2062661218435571
21
-3.25
31
0
0
ELLIPSE
5
139
100
AcDbEntity
8
0
100
AcDbEllipse
10
0.72438696988103046
20
-5.0227098061556195
30
0
11
-0.0097785082848581041
21
-0.028361607424879146
31
0.0
40
0.99964172038556676
41
0.044117367114904937
42
1.1800786012160731
6
DASHED
0
ELLIPSE
5
140
100
AcDbEntity
8
0
100
AcDbEllipse
10
0.25039293106154914
20
-4.9848250388481068
30
0
11
0.16297513808099112
21
0.47269345708135668
31
0.0
40
0.99964172038556665
41
4.9285835276699785
42
5.0139424121687828
0
ELLIPSE
5
141
100
AcDbEntity
8
0
100
AcDbEllipse
10
1.4994086821493744
20
-5.0227588773702614
30
0
11
0.24446270712139004
21
0.70904018562200066
31
0.0
40
0.99964172038556653
41
1.357477629240559
42
1.8723497585788864
6
DASHED
0
ELLIPSE
5
142
100
AcDbEntity
8
0
100
AcDbEllipse
10
1.4994583166525151
20
-5.0227827334894251
30
0
11
0.2444627071214735
21
0.70904018562197191
31
0.0
40
0.99964172038556642
41
0.86005879242229455
42
1.3749309217606218
6
DASHED
0
ELLIPSE
5
143
100
AcDbEntity
8
0
100
AcDbEllipse
10
1.4995522410998203
20
-5.0228359525658473
30
0
11
0.24446270712132134
21
0.70904018562202431
31
0.0
40
0.99964172038556665
41
0.36263995560369522
42
0.87751208494202237
6
DASHED
0
ELLIPSE
5
144
100
AcDbEntity
8
0
100
AcDbEllipse
10
1.461429381831352
20
-3.7734738049491736
30
0
11
-0.16297513808097958
21
-0.47269345708126786
31
0.0
40
0.99964172038556642
41
0.36263995560393442
42
0.44799884010274649
6
DASHED
0
ELLIPSE
5
145
100
AcDbEntity
8
0
100
AcDbEllipse
10
1.4993792542180193
20
-4.2475955431736487
30
0
11
-0.0097785082848655253
21
-0.028361607424876634
31
0.0
40
0.99964172038556676
41
1.054911112967003
42
2.1908723470682099
6
DASHED
0
LINE
5
146
100
AcDbEntity
8
0
100
AcDbLine
10
1.5281348951249736
20
-4.2390699313970899
30
0
11
1.360636730945503
21
-3.6734197279335161
31
0
6
DASHED
0
ELLIPSE
5
147
100
AcDbEntity
8
0
100
AcDbEllipse
10
1.3318810900385487
20
-3.6819453397100754
30
0
11
0.0097785082848578717
21
0.028361607424879243
31
0.0
40
0.99964172038556653
41
5.3324650006577583
42
6.9032613274526158
6
DASHED
0
LINE
5
148
100
AcDbEntity
8
0
100
AcDbLine
10
1.2620972128356971
20
-3.4380830345633107
30
0
11
1.2062661218435564
21
-3.25
31
0
6
DASHED
0
LINE
5
149
100
AcDbEntity
8
0
100
AcDbLine
10
1.1480823376310032
20
-3.25
30
0
11
1.2062661218435564
21
-3.25
31
0
6
DASHED
0
LINE
5
150
100
AcDbEntity
8
0
100
AcDbLine
10
4.3709567898628207e-17
20
-5.0000000000000009
30
0
11
0.54203080021621663
21
-5.0000000000000009
31
0
6
DASHED
0
LINE
5
151
100
AcDbEntity
8
0
100
AcDbLine
10
0.54203080021621663
20
-5.0000000000000009
30
0
11
0.71586836166193391
21
-5.0514749249602744
31
0
6
DASHED
0
LINE
5
152
100
AcDbEntity
8
0
100
AcDbLine
10
4.3709567898628207e-17
20
-5.0000000000000009
30
0
11
-0.54203080021621719
21
-5.0000000000000009
31
0
6
DASHED
0
LINE
5
153
100
AcDbEntity
8
0
100
AcDbLine
10
1.1480823376310032
20
-3.25
30
0
11
-2.6225740739176924e-16
21
-3.25
31
0
0
LINE
5
154
100
AcDbEntity
8
0
100
AcDbLine
10
0.62500000000000022
20
-0.03937007874015748
30
0
11
0.62500000000000022
21
-3.25
31
0
0
LINE
5
155
100
AcDbEntity
8
0
100
AcDbLine
10
-0.62499999999999978
20
-0.03937007874015748
30
0
11
-0.62499999999999978
21
-3.25
31
0
0
LINE
5
156
100
AcDbEntity
8
0
100
AcDbLine
10
1.2620972128356971
20
-3.4380830345633107
30
0
11
1.3233642342328134
21
-3.65318346495769
31
0
6
DASHED
0
ENDSEC
0
SECTION
2
OBJECTS
0
DICTIONARY
5
C
100
AcDbDictionary
3
ACAD_GROUP
350
D
3
ACAD_MLINESTYLE
350
17
0
DICTIONARY
5
D
100
AcDbDictionary
0
DICTIONARY
5
1A
330
C
100
AcDbDictionary
0
DICTIONARY
5
17
100
AcDbDictionary
0
ENDSEC
0
EOF
