0
SECTION
2
HEADER
9
$INSUNITS
70
1
9
$ACADVER
1
AC1014
9
$HANDSEED
5
FFFF
0
ENDSEC
0
SECTION
2
TABLES
0
TABLE
2
VPORT
5
8
100
AcDbSymbolTable
0
ENDTAB
0
TABLE
2
LTYPE
5
5
100
AcDbSymbolTable
0
LTYPE
5
14
100
AcDbSymbolTableRecord
100
AcDbLinetypeTableRecord
2
BYBLOCK
70
0
0
LTYPE
5
15
100
AcDbSymbolTableRecord
100
AcDbLinetypeTableRecord
2
BYLAYER
70
0
0
LTYPE
5
16
100
AcDbSymbolTableRecord
100
AcDbLinetypeTableRecord
2
DASHED
70
0
3
Dashed __ __ __ __ __ __ __ __ __ __ __ __ __ _
72
65
73
2
40
0.75
49
0.5
74
0
49
-0.25
74
0
0
ENDTAB
0
TABLE
2
LAYER
5
2
100
AcDbSymbolTable
70
2
0
LAYER
5
50
100
AcDbSymbolTableRecord
100
AcDbLayerTableRecord
2
0
70
0
62
7
6
CONTINUOUS
0
ENDTAB
0
TABLE
2
STYLE
5
3
100
AcDbSymbolTable
70
1
0
STYLE
5
11
100
AcDbSymbolTableRecord
100
AcDbTextStyleTableRecord
2
STANDARD
70
0
0
ENDTAB
0
TABLE
2
VIEW
5
6
100
AcDbSymbolTable
70
0
0
ENDTAB
0
TABLE
2
UCS
5
7
100
AcDbSymbolTable
70
0
0
ENDTAB
0
TABLE
2
APPID
5
9
100
AcDbSymbolTable
70
2
0
APPID
5
12
100
AcDbSymbolTableRecord
100
AcDbRegAppTableRecord
2
ACAD
70
0
0
ENDTAB
0
TABLE
2
DIMSTYLE
5
A
100
AcDbSymbolTable
70
1
0
ENDTAB
0
TABLE
2
BLOCK_RECORD
5
1
100
AcDbSymbolTable
70
1
0
BLOCK_RECORD
5
1F
100
AcDbSymbolTableRecord
100
AcDbBlockTableRecord
2
*MODEL_SPACE
0
BLOCK_RECORD
5
1B
100
AcDbSymbolTableRecord
100
AcDbBlockTableRecord
2
*PAPER_SPACE
0
ENDTAB
0
ENDSEC
0
SECTION
2
BLOCKS
0
BLOCK
5
20
100
AcDbEntity
100
AcDbBlockBegin
2
*MODEL_SPACE
0
ENDBLK
5
21
100
AcDbEntity
100
AcDbBlockEnd
0
BLOCK
5
1C
100
AcDbEntity
100
AcDbBlockBegin
2
*PAPER_SPACE
0
ENDBLK
5
1D
100
AcDbEntity
100
AcDbBlockEnd
0
ENDSEC
0
SECTION
2
ENTITIES
0
LINE
5
100
100
AcDbEntity
8
0
100
AcDbLine
10
0.62499999999999989
20
-0.03937007874015748
30
0
11
-0.62499999999999989
21
-0.03937007874015748
31
0
0
ELLIPSE
5
101
100
AcDbEntity
8
0
100
AcDbEllipse
10
0
20
-8.3227729365170973
30
0
11
-0.0088532846165355755
21
6.4291107372679051
31
0.0
40
0.052371670157067805
41
0.88602820684174255
42
0.88606868696021746
0
ELLIPSE
5
102
100
AcDbEntity
8
0
100
AcDbEllipse
10
0
20
-8.3227729365170973
30
0
11
0.0088532846165355339
21
6.4291107372679051
31
0.0
40
0.052371670157067819
41
5.3971166202193688
42
5.3971571003378429
0
ELLIPSE
5
103
100
AcDbEntity
8
0
100
AcDbEllipse
10
-0.37508566875611049
20
-4.6025837565632566
30
0
11
0.13414567679990863
21
-0.067118830412146321
31
0.0
40
0.99828732935434239
41
0
42
6.2831853071795862
0
LINE
5
104
100
AcDbEntity
8
0
100
AcDbLine
10
-0.152547280961946
20
-4.9593557205716543
30
0
11
-0.36769006706347712
21
-4.9778640774144458
31
0
0
LINE
5
105
100
AcDbEntity
8
0
100
AcDbLine
10
-0.36769006706347712
20
-4.9778640774144458
30
0
11
-0.37011378232201192
21
-4.9501860464552179
31
0
0
ELLIPSE
5
106
100
AcDbEntity
8
0
100
AcDbEllipse
10
-0.61907711408431909
20
-4.97160392556947
30
0
11
-0.22357612799985846
21
0.11186471735355585
31
0.0
40
0.9982873293543425
41
3.6920953836139221
42
5.0883587852093974
0
LINE
5
107
100
AcDbEntity
8
0
100
AcDbLine
10
-0.59729564492147436
20
-4.722926414345868
30
0
11
-0.62499883709353299
21
-4.7204672247500366
31
0
0
LINE
5
108
100
AcDbEntity
8
0
100
AcDbLine
10
-0.62499883709353299
20
-4.7204672247500366
30
0
11
-0.62499999999999967
21
-4.7204672231563141
31
0
0
LINE
5
109
100
AcDbEntity
8
0
100
AcDbLine
10
-0.62499999999999967
20
-4.7204672231563141
30
0
11
-0.62499999999999967
21
-4.4827226616608282
31
0
0
LINE
5
110
100
AcDbEntity
8
0
100
AcDbLine
10
-0.62499999999999967
20
-4.4827226616608282
30
0
11
-0.59730844966389274
21
-4.4803404061158583
31
0
0
ELLIPSE
5
111
100
AcDbEntity
8
0
100
AcDbEllipse
10
-0.61908991882673803
20
-4.2316031933992937
30
0
11
0.22357612799984705
21
-0.11186471735357799
31
0.0
40
0.99828732935434272
41
5.2628917104089243
42
6.6591551120044024
0
LINE
5
112
100
AcDbEntity
8
0
100
AcDbLine
10
-0.37012658706443125
20
-4.2537034637006768
30
0
11
-0.36770287180589639
21
-4.2260320759765024
31
0
0
LINE
5
113
100
AcDbEntity
8
0
100
AcDbLine
10
-0.36770287180589639
20
-4.2260320759765024
30
0
11
-0.15777483356102992
21
-4.207972334752788
31
0
0
ELLIPSE
5
114
100
AcDbEntity
8
0
100
AcDbEllipse
10
-0.15516105726148832
20
-4.2378208002787723
30
0
11
0.026829135359978499
21
-0.013423766082430112
31
0.0
40
0.99828732935434261
41
0.46323626742456731
42
2.1212990568192169
0
LINE
5
115
100
AcDbEntity
8
0
100
AcDbLine
10
-0.12517133751222409
20
-4.2378619001474096
30
0
11
-0.12517133751222123
21
-4.9295483549143038
31
0
0
ELLIPSE
5
116
100
AcDbEntity
8
0
100
AcDbEllipse
10
-0.15516105726148799
20
-4.9295072550456664
30
0
11
0.026829135359981628
21
-0.01342376608242951
31
0.0
40
0.99828732935434272
41
5.2628917104089439
42
6.7464215746040868
0
LINE
5
117
100
AcDbEntity
8
0
100
AcDbLine
10
0.152547280961946
20
-4.9593557205716543
30
0
11
0.36769006706347712
21
-4.9778640774144458
31
0
6
DASHED
0
LINE
5
118
100
AcDbEntity
8
0
100
AcDbLine
10
0.36769006706347712
20
-4.9778640774144458
30
0
11
0.37011378232201192
21
-4.9501860464552179
31
0
6
DASHED
0
ELLIPSE
5
119
100
AcDbEntity
8
0
100
AcDbEllipse
10
0.61907711408431909
20
-4.97160392556947
30
0
11
0.22357612799985441
21
0.11186471735356392
31
0.0
40
0.99828732935434283
41
1.1948265219701559
42
2.5910899235656295
6
DASHED
0
LINE
5
120
100
AcDbEntity
8
0
100
AcDbLine
10
0.59729564492147424
20
-4.7229264143458689
30
0
11
0.62499883709353299
21
-4.7204672247500366
31
0
6
DASHED
0
LINE
5
121
100
AcDbEntity
8
0
100
AcDbLine
10
0.62499883709353299
20
-4.7204672247500366
30
0
11
0.62499999999999967
21
-4.7204672231563141
31
0
0
LINE
5
122
100
AcDbEntity
8
0
100
AcDbLine
10
0.62499999999999967
20
-4.7204672231563141
30
0
11
0.62499999999999967
21
-4.4827226616608282
31
0
6
DASHED
0
LINE
5
123
100
AcDbEntity
8
0
100
AcDbLine
10
0.62499999999999967
20
-4.4827226616608282
30
0
11
0.59730844966389274
21
-4.4803404061158583
31
0
6
DASHED
0
ELLIPSE
5
124
100
AcDbEntity
8
0
100
AcDbEllipse
10
0.61908991882673803
20
-4.2316031933992937
30
0
11
-0.22357612799984705
21
-0.11186471735357799
31
0.0
40
0.99828732935434272
41
5.9072155023547701
42
7.3034789039502481
6
DASHED
0
LINE
5
125
100
AcDbEntity
8
0
100
AcDbLine
10
0.37012658706443119
20
-4.2537034637006768
30
0
11
0.36770287180589639
21
-4.2260320759765024
31
0
6
DASHED
0
LINE
5
126
100
AcDbEntity
8
0
100
AcDbLine
10
-0.62499999999999989
20
-0.03937007874015748
30
0
11
-0.62499999999999989
21
-2.9744094488188968
31
0
0
LINE
5
127
100
AcDbEntity
8
0
100
AcDbLine
10
0.62499999999999989
20
-0.03937007874015748
30
0
11
0.62499999999999989
21
-2.9744094488188968
31
0
0
LINE
5
128
100
AcDbEntity
8
0
100
AcDbLine
10
0.62499999999999989
20
-2.9744094488188968
30
0
11
0.34940944881889757
21
-3.2499999999999996
31
0
0
LINE
5
129
100
AcDbEntity
8
0
100
AcDbLine
10
0.34940944881889757
20
-3.2499999999999996
30
0
11
0.33681964107443541
21
-3.2683618752631745
31
0
0
LINE
5
130
100
AcDbEntity
8
0
100
AcDbLine
10
0.33681964107443541
20
-3.2683618752631745
30
0
11
0.33681964107443546
21
-4.023611976046876
31
0
0
LINE
5
131
100
AcDbEntity
8
0
100
AcDbLine
10
-0.33681964107443546
20
-4.023611976046876
30
0
11
-0.33681964107443541
21
-3.2683618752631745
31
0
0
LINE
5
132
100
AcDbEntity
8
0
100
AcDbLine
10
-0.33681964107443541
20
-3.2683618752631745
30
0
11
-0.34940944881889757
21
-3.2499999999999996
31
0
0
LINE
5
133
100
AcDbEntity
8
0
100
AcDbLine
10
-0.34940944881889757
20
-3.2499999999999996
30
0
11
-0.62499999999999989
21
-2.9744094488188968
31
0
0
LINE
5
134
100
AcDbEntity
8
0
100
AcDbLine
10
-0.152547280961946
20
-4.9593557205716543
30
0
11
0.152547280961946
21
-4.9593557205716543
31
0
6
DASHED
0
LINE
5
135
100
AcDbEntity
8
0
100
AcDbLine
10
0.33681964107443546
20
-4.023611976046876
30
0
11
0.33681964107443552
21
-4.2233752457606561
31
0
0
LINE
5
136
100
AcDbEntity
8
0
100
AcDbLine
10
-0.33681964107443546
20
-4.023611976046876
30
0
11
-0.33681964107443552
21
-4.2233752457606561
31
0
0
LINE
5
137
100
AcDbEntity
8
0
100
AcDbLine
10
0.33681964107443552
20
-4.2233752457606561
30
0
11
0.36770287180589639
21
-4.2260320759765024
31
0
6
DASHED
0
ENDSEC
0
SECTION
2
OBJECTS
0
DICTIONARY
5
C
100
AcDbDictionary
3
ACAD_GROUP
350
D
3
ACAD_MLINESTYLE
350
17
0
DICTIONARY
5
D
100
AcDbDictionary
0
DICTIONARY
5
1A
330
C
100
AcDbDictionary
0
DICTIONARY
5
17
100
AcDbDictionary
0
ENDSEC
0
EOF
