0
SECTION
2
HEADER
9
$INSUNITS
70
1
9
$ACADVER
1
AC1014
9
$HANDSEED
5
FFFF
0
ENDSEC
0
SECTION
2
TABLES
0
TABLE
2
VPORT
5
8
100
AcDbSymbolTable
0
ENDTAB
0
TABLE
2
LTYPE
5
5
100
AcDbSymbolTable
0
LTYPE
5
14
100
AcDbSymbolTableRecord
100
AcDbLinetypeTableRecord
2
BYBLOCK
70
0
0
LTYPE
5
15
100
AcDbSymbolTableRecord
100
AcDbLinetypeTableRecord
2
BYLAYER
70
0
0
LTYPE
5
16
100
AcDbSymbolTableRecord
100
AcDbLinetypeTableRecord
2
DASHED
70
0
3
Dashed __ __ __ __ __ __ __ __ __ __ __ __ __ _
72
65
73
2
40
0.75
49
0.5
74
0
49
-0.25
74
0
0
ENDTAB
0
TABLE
2
LAYER
5
2
100
AcDbSymbolTable
70
2
0
LAYER
5
50
100
AcDbSymbolTableRecord
100
AcDbLayerTableRecord
2
0
70
0
62
7
6
CONTINUOUS
0
ENDTAB
0
TABLE
2
STYLE
5
3
100
AcDbSymbolTable
70
1
0
STYLE
5
11
100
AcDbSymbolTableRecord
100
AcDbTextStyleTableRecord
2
STANDARD
70
0
0
ENDTAB
0
TABLE
2
VIEW
5
6
100
AcDbSymbolTable
70
0
0
ENDTAB
0
TABLE
2
UCS
5
7
100
AcDbSymbolTable
70
0
0
ENDTAB
0
TABLE
2
APPID
5
9
100
AcDbSymbolTable
70
2
0
APPID
5
12
100
AcDbSymbolTableRecord
100
AcDbRegAppTableRecord
2
ACAD
70
0
0
ENDTAB
0
TABLE
2
DIMSTYLE
5
A
100
AcDbSymbolTable
70
1
0
ENDTAB
0
TABLE
2
BLOCK_RECORD
5
1
100
AcDbSymbolTable
70
1
0
BLOCK_RECORD
5
1F
100
AcDbSymbolTableRecord
100
AcDbBlockTableRecord
2
*MODEL_SPACE
0
BLOCK_RECORD
5
1B
100
AcDbSymbolTableRecord
100
AcDbBlockTableRecord
2
*PAPER_SPACE
0
ENDTAB
0
ENDSEC
0
SECTION
2
BLOCKS
0
BLOCK
5
20
100
AcDbEntity
100
AcDbBlockBegin
2
*MODEL_SPACE
0
ENDBLK
5
21
100
AcDbEntity
100
AcDbBlockEnd
0
BLOCK
5
1C
100
AcDbEntity
100
AcDbBlockBegin
2
*PAPER_SPACE
0
ENDBLK
5
1D
100
AcDbEntity
100
AcDbBlockEnd
0
ENDSEC
0
SECTION
2
ENTITIES
0
LINE
5
100
100
AcDbEntity
8
0
100
AcDbLine
10
2.7946850393700799
20
0
30
0
11
4.0053149606299217
21
0
31
0
0
LINE
5
101
100
AcDbEntity
8
0
100
AcDbLine
10
4.0053149606299217
20
0
30
0
11
4.0250000000000012
21
0.01968503937007874
31
0
0
LINE
5
102
100
AcDbEntity
8
0
100
AcDbLine
10
4.0250000000000012
20
0.01968503937007874
30
0
11
4.0250000000000012
21
3.2099999999999995
31
0
0
LINE
5
103
100
AcDbEntity
8
0
100
AcDbLine
10
4.0250000000000012
20
3.2099999999999995
30
0
11
4.5589870784255764
21
3.2099999999999995
31
0
0
LINE
5
104
100
AcDbEntity
8
0
100
AcDbLine
10
4.5589870784255764
20
3.2099999999999995
30
0
11
4.6116621477596427
21
3.2470537491396243
31
0
0
LINE
5
105
100
AcDbEntity
8
0
100
AcDbLine
10
4.6116621477596427
20
3.2470537491396243
30
0
11
4.7452049365535718
21
3.6192681770680171
31
0
0
ELLIPSE
5
106
100
AcDbEntity
8
0
100
AcDbEllipse
10
4.7532104375848405
20
3.6481681058351239
30
0
11
0.019202042813656738
21
-0.023049545587331986
31
0.0
40
0.99941943360284269
41
5.3180948360249527
42
6.8144066108123482
0
LINE
5
107
100
AcDbEntity
8
0
100
AcDbLine
10
4.781436042517111
20
3.6380168930703398
30
0
11
4.9807385867235068
21
4.1930647470157805
31
0
0
ELLIPSE
5
108
100
AcDbEntity
8
0
100
AcDbEllipse
10
4.9525129817912372
20
4.2032159597805636
30
0
11
0.019202042813655094
21
-0.023049545587333131
31
0.0
40
0.99941943360284269
41
0.53122130363286091
42
1.6161375476625568
0
ELLIPSE
5
109
100
AcDbEntity
8
0
100
AcDbEllipse
10
4.903280925009164
20
3.7287144320800425
30
0
11
0.32003404689423404
21
-0.38415909312223684
31
0.0
40
0.99941943360284247
41
2.3034330187614382
42
2.3594536950969545
0
ELLIPSE
5
110
100
AcDbEntity
8
0
100
AcDbEllipse
10
5.0175900751757769
20
5.0353455453115634
30
0
11
0.51973529215633807
21
-0.62387436723042711
31
0.0
40
0.99941943360284224
41
4.986174219348257
42
5.5010463486865842
0
ELLIPSE
5
111
100
AcDbEntity
8
0
100
AcDbEllipse
10
4.2747197427020582
20
3.9547736542860736
30
0
11
0.32003404689424642
21
-0.3841590931222269
31
0.0
40
0.9994194336028428
41
1.8445815657585967
42
1.8646237522146276
0
ELLIPSE
5
112
100
AcDbEntity
8
0
100
AcDbEllipse
10
5.0174873472580694
20
5.0352195856122544
30
0
11
0.51973529215628911
21
-0.62387436723046741
31
0.0
40
0.99941943360284247
41
4.5454785832197668
42
4.9738498591500164
0
ELLIPSE
5
113
100
AcDbEntity
8
0
100
AcDbEllipse
10
3.8845235359168564
20
4.3750726137745559
30
0
11
0.32003404689423937
21
-0.38415909312223295
31
0.0
40
0.99941943360284269
41
1.4038859296300452
42
1.4175165692692404
0
ELLIPSE
5
114
100
AcDbEntity
8
0
100
AcDbEllipse
10
5.0174222169974989
20
5.0351823900650867
30
0
11
0.51973529215632108
21
-0.62387436723044132
31
0.0
40
0.99941943360284224
41
4.1047829470911452
42
4.5370862959989218
0
ELLIPSE
5
115
100
AcDbEntity
8
0
100
AcDbEllipse
10
3.7108626519089145
20
4.921607630221124
30
0
11
0.32003404689431753
21
-0.38415909312216762
31
0.0
40
0.99941943360284269
41
0.96319029350128127
42
1.019210969836789
0
ELLIPSE
5
116
100
AcDbEntity
8
0
100
AcDbEllipse
10
4.1853426069914015
20
4.9705738001795243
30
0
11
-0.019202042813654778
21
0.023049545587333617
31
0.0
40
0.9994194336028428
41
4.8480990945254847
42
5.9330153385552755
0
LINE
5
117
100
AcDbEntity
8
0
100
AcDbLine
10
4.1752085793198903
20
4.9988081503961128
30
0
11
2.6247914206801117
21
4.9988081503961128
31
0
0
ELLIPSE
5
118
100
AcDbEntity
8
0
100
AcDbEllipse
10
2.6146573930086001
20
4.9705738001795243
30
0
11
0.019202042813654778
21
0.023049545587333617
31
0.0
40
0.99941943360284302
41
0.35016996862429711
42
1.4350862126541013
0
ELLIPSE
5
119
100
AcDbEntity
8
0
100
AcDbEllipse
10
3.0891373480910871
20
4.921607630221124
30
0
11
-0.32003404689431753
21
-0.38415909312216762
31
0.0
40
0.99941943360284269
41
5.2639743373427974
42
5.3199950136783052
0
ELLIPSE
5
120
100
AcDbEntity
8
0
100
AcDbEllipse
10
1.7825777830025031
20
5.0351823900650867
30
0
11
-0.51973529215632108
21
-0.62387436723044132
31
0.0
40
0.99941943360284202
41
1.7460990111806667
42
2.1784023600884415
0
ELLIPSE
5
121
100
AcDbEntity
8
0
100
AcDbEllipse
10
2.9154764640831452
20
4.3750726137745559
30
0
11
-0.32003404689423937
21
-0.38415909312223295
31
0.0
40
0.99941943360284269
41
4.8656687379103429
42
4.8792993775495379
0
ELLIPSE
5
122
100
AcDbEntity
8
0
100
AcDbEllipse
10
1.7825126527419326
20
5.0352195856122544
30
0
11
-0.51973529215628911
21
-0.62387436723046741
31
0.0
40
0.99941943360284247
41
1.3093354480295694
42
1.7377067239598198
0
ELLIPSE
5
123
100
AcDbEntity
8
0
100
AcDbEllipse
10
2.5252802572979434
20
3.9547736542860736
30
0
11
-0.32003404689424642
21
-0.3841590931222269
31
0.0
40
0.9994194336028428
41
4.4185615549649615
42
4.4386037414209891
0
ELLIPSE
5
124
100
AcDbEntity
8
0
100
AcDbEllipse
10
1.7824099248242244
20
5.0353455453115634
30
0
11
-0.51973529215633807
21
-0.62387436723042711
31
0.0
40
0.99941943360284224
41
0.7821389584930033
42
1.2970110878313301
0
ELLIPSE
5
125
100
AcDbEntity
8
0
100
AcDbEllipse
10
1.896719074990838
20
3.7287144320800425
30
0
11
-0.32003404689423404
21
-0.38415909312223684
31
0.0
40
0.99941943360284269
41
3.9237316120826304
42
3.9797522884181467
0
ELLIPSE
5
126
100
AcDbEntity
8
0
100
AcDbEllipse
10
1.8474870182087646
20
4.2032159597805636
30
0
11
-0.019202042813655094
21
-0.023049545587333131
31
0.0
40
0.99941943360284269
41
4.667047759516981
42
5.7519640035467292
0
LINE
5
127
100
AcDbEntity
8
0
100
AcDbLine
10
1.8192614132764946
20
4.1930647470157805
30
0
11
2.0185639574828906
21
3.6380168930703398
31
0
0
ELLIPSE
5
128
100
AcDbEntity
8
0
100
AcDbEllipse
10
2.0467895624151611
20
3.6481681058351239
30
0
11
-0.019202042813656738
21
-0.023049545587331986
31
0.0
40
0.99941943360284269
41
5.7519640035468269
42
7.2482757783341807
0
LINE
5
129
100
AcDbEntity
8
0
100
AcDbLine
10
2.0547950634464294
20
3.6192681770680171
30
0
11
2.1883378522403589
21
3.2470537491396243
31
0
0
LINE
5
130
100
AcDbEntity
8
0
100
AcDbLine
10
2.1883378522403589
20
3.2470537491396243
30
0
11
2.2410129215744248
21
3.2099999999999995
31
0
0
LINE
5
131
100
AcDbEntity
8
0
100
AcDbLine
10
2.2410129215744248
20
3.2099999999999995
30
0
11
2.7750000000000008
21
3.2099999999999995
31
0
0
LINE
5
132
100
AcDbEntity
8
0
100
AcDbLine
10
2.7750000000000008
20
3.2099999999999995
30
0
11
2.7750000000000008
21
0.019685039370079017
31
0
0
LINE
5
133
100
AcDbEntity
8
0
100
AcDbLine
10
2.7750000000000008
20
0.019685039370079017
30
0
11
2.7946850393700799
21
0
31
0
0
ENDSEC
0
SECTION
2
OBJECTS
0
DICTIONARY
5
C
100
AcDbDictionary
3
ACAD_GROUP
350
D
3
ACAD_MLINESTYLE
350
17
0
DICTIONARY
5
D
100
AcDbDictionary
0
DICTIONARY
5
1A
330
C
100
AcDbDictionary
0
DICTIONARY
5
17
100
AcDbDictionary
0
ENDSEC
0
EOF
