0
SECTION
2
HEADER
9
$INSUNITS
70
1
9
$ACADVER
1
AC1014
9
$HANDSEED
5
FFFF
0
ENDSEC
0
SECTION
2
TABLES
0
TABLE
2
VPORT
5
8
100
AcDbSymbolTable
0
ENDTAB
0
TABLE
2
LTYPE
5
5
100
AcDbSymbolTable
0
LTYPE
5
14
100
AcDbSymbolTableRecord
100
AcDbLinetypeTableRecord
2
BYBLOCK
70
0
0
LTYPE
5
15
100
AcDbSymbolTableRecord
100
AcDbLinetypeTableRecord
2
BYLAYER
70
0
0
LTYPE
5
16
100
AcDbSymbolTableRecord
100
AcDbLinetypeTableRecord
2
DASHED
70
0
3
Dashed __ __ __ __ __ __ __ __ __ __ __ __ __ _
72
65
73
2
40
0.75
49
0.5
74
0
49
-0.25
74
0
0
ENDTAB
0
TABLE
2
LAYER
5
2
100
AcDbSymbolTable
70
2
0
LAYER
5
50
100
AcDbSymbolTableRecord
100
AcDbLayerTableRecord
2
0
70
0
62
7
6
CONTINUOUS
0
ENDTAB
0
TABLE
2
STYLE
5
3
100
AcDbSymbolTable
70
1
0
STYLE
5
11
100
AcDbSymbolTableRecord
100
AcDbTextStyleTableRecord
2
STANDARD
70
0
0
ENDTAB
0
TABLE
2
VIEW
5
6
100
AcDbSymbolTable
70
0
0
ENDTAB
0
TABLE
2
UCS
5
7
100
AcDbSymbolTable
70
0
0
ENDTAB
0
TABLE
2
APPID
5
9
100
AcDbSymbolTable
70
2
0
APPID
5
12
100
AcDbSymbolTableRecord
100
AcDbRegAppTableRecord
2
ACAD
70
0
0
ENDTAB
0
TABLE
2
DIMSTYLE
5
A
100
AcDbSymbolTable
70
1
0
ENDTAB
0
TABLE
2
BLOCK_RECORD
5
1
100
AcDbSymbolTable
70
1
0
BLOCK_RECORD
5
1F
100
AcDbSymbolTableRecord
100
AcDbBlockTableRecord
2
*MODEL_SPACE
0
BLOCK_RECORD
5
1B
100
AcDbSymbolTableRecord
100
AcDbBlockTableRecord
2
*PAPER_SPACE
0
ENDTAB
0
ENDSEC
0
SECTION
2
BLOCKS
0
BLOCK
5
20
100
AcDbEntity
100
AcDbBlockBegin
2
*MODEL_SPACE
0
ENDBLK
5
21
100
AcDbEntity
100
AcDbBlockEnd
0
BLOCK
5
1C
100
AcDbEntity
100
AcDbBlockBegin
2
*PAPER_SPACE
0
ENDBLK
5
1D
100
AcDbEntity
100
AcDbBlockEnd
0
ENDSEC
0
SECTION
2
ENTITIES
0
LINE
5
100
100
AcDbEntity
8
0
100
AcDbLine
10
1.5946850393700791
20
0
30
0
11
2.8053149606299215
21
0
31
0
0
LINE
5
101
100
AcDbEntity
8
0
100
AcDbLine
10
2.8053149606299215
20
0
30
0
11
2.8250000000000002
21
0.01968503937007874
31
0
0
LINE
5
102
100
AcDbEntity
8
0
100
AcDbLine
10
2.8250000000000002
20
0.01968503937007874
30
0
11
2.8250000000000002
21
3.3381554750149434
31
0
0
LINE
5
103
100
AcDbEntity
8
0
100
AcDbLine
10
2.8250000000000002
20
3.3381554750149434
30
0
11
2.7856020783611828
21
3.3775533966537603
31
0
0
LINE
5
104
100
AcDbEntity
8
0
100
AcDbLine
10
2.7856020783611828
20
3.3775533966537603
30
0
11
2.7856020783611828
21
3.655444047243539
31
0
0
ARC
5
105
100
AcDbEntity
8
0
100
AcDbCircle
10
3.0611926295422798
20
3.6554440472435394
30
0
40
0.27559055118109688
210
0
220
0
230
1
100
AcDbArc
50
154.11831876591484
51
180
0
LINE
5
106
100
AcDbEntity
8
0
100
AcDbLine
10
2.8132445303611266
20
3.77574322435109
30
0
11
2.8746811247053659
21
3.9023699158553824
31
0
0
ELLIPSE
5
107
100
AcDbEntity
8
0
100
AcDbEllipse
10
2.8879452385733044
20
3.9292621181281508
30
0
11
0.019202042813654806
21
-0.023049545587333603
31
0.0
40
0.99941943360284269
41
5.1301638826378966
42
6.700960209432826
0
LINE
5
108
100
AcDbEntity
8
0
100
AcDbLine
10
2.9148422007426262
20
3.9159812503056903
30
0
11
3.1757031068120751
21
4.4448612283367996
31
0
0
ELLIPSE
5
109
100
AcDbEntity
8
0
100
AcDbEllipse
10
3.1488061446427533
20
4.4581420961592606
30
0
11
0.019202042813655899
21
-0.023049545587332618
31
0.0
40
0.99941943360284191
41
0.41777490225318747
42
1.651502058821215
0
ELLIPSE
5
110
100
AcDbEntity
8
0
100
AcDbEllipse
10
3.0758658538046113
20
3.9882889703904776
30
0
11
0.32003404689414272
21
-0.38415909312231267
31
0.0
40
0.9994194336028428
41
2.256809084634257
42
2.3594536950971956
0
ELLIPSE
5
111
100
AcDbEntity
8
0
100
AcDbEllipse
10
3.1629917304559929
20
4.984196831085236
30
0
11
-0.32003404689427972
21
0.38415909312219876
31
0.0
40
0.99941943360284302
41
1.6176887629995012
42
2.3594536950968354
0
ELLIPSE
5
112
100
AcDbEntity
8
0
100
AcDbEllipse
10
2.4334211723299375
20
4.3012246281425366
30
0
11
0.32003404689426485
21
-0.38415909312220881
31
0.0
40
0.99941943360284247
41
1.6395053786489573
42
1.6469340890462725
0
ELLIPSE
5
113
100
AcDbEntity
8
0
100
AcDbEllipse
10
3.1629138431555455
20
4.9841211259761229
30
0
11
-0.32003404689426901
21
0.38415909312220764
31
0.0
40
0.99941943360284236
41
0.96319029350165752
42
1.6102559745917944
0
ELLIPSE
5
114
100
AcDbEntity
8
0
100
AcDbEllipse
10
2.168129329659771
20
4.8867014047727535
30
0
11
0.32003404689421594
21
-0.38415909312224922
31
0.0
40
0.99941943360284302
41
0.9850069091512077
42
1.0906760387751941
0
ELLIPSE
5
115
100
AcDbEntity
8
0
100
AcDbEllipse
10
2.6369060978116758
20
4.9702345325663941
30
0
11
-0.019202042813655232
21
0.023049545587333239
31
0.0
40
0.99941943360284302
41
4.8773392283482426
42
6.0464617399349123
0
LINE
5
116
100
AcDbEntity
8
0
100
AcDbLine
10
2.6236419839437377
20
4.9971418889000727
30
0
11
1.7763580160562624
21
4.9971418889000718
31
0
0
ELLIPSE
5
117
100
AcDbEntity
8
0
100
AcDbEllipse
10
1.7630939021883245
20
4.9702345325663941
30
0
11
0.019202042813655232
21
0.023049545587333239
31
0.0
40
0.99941943360284302
41
0.23672356724466653
42
1.4058460788313576
0
ELLIPSE
5
118
100
AcDbEntity
8
0
100
AcDbEllipse
10
2.2318706703402293
20
4.8867014047727535
30
0
11
-0.32003404689421594
21
-0.38415909312224922
31
0.0
40
0.99941943360284302
41
5.1925092684043932
42
5.2981783980283783
0
ELLIPSE
5
119
100
AcDbEntity
8
0
100
AcDbEllipse
10
1.2370861568444549
20
4.9841211259761229
30
0
11
0.32003404689426901
21
0.38415909312220764
31
0.0
40
0.99941943360284236
41
4.6729293325877919
42
5.3199950136779286
0
ELLIPSE
5
120
100
AcDbEntity
8
0
100
AcDbEllipse
10
1.9665788276700629
20
4.3012246281425366
30
0
11
-0.32003404689426485
21
-0.38415909312220881
31
0.0
40
0.99941943360284247
41
4.6362512181333138
42
4.6436799285306272
0
ELLIPSE
5
121
100
AcDbEntity
8
0
100
AcDbEllipse
10
1.2370082695440074
20
4.984196831085236
30
0
11
0.32003404689427972
21
0.38415909312219876
31
0.0
40
0.99941943360284302
41
3.9237316120827499
42
4.6654965441800869
0
ELLIPSE
5
122
100
AcDbEntity
8
0
100
AcDbEllipse
10
1.3241341461953891
20
3.9882889703904776
30
0
11
-0.32003404689414272
21
-0.38415909312231267
31
0.0
40
0.9994194336028428
41
3.9237316120823924
42
4.0263762225453306
0
ELLIPSE
5
123
100
AcDbEntity
8
0
100
AcDbEllipse
10
1.251193855357247
20
4.4581420961592606
30
0
11
-0.019202042813655899
21
-0.023049545587332618
31
0.0
40
0.99941943360284191
41
4.6316832483583728
42
5.8654104049264246
0
LINE
5
124
100
AcDbEntity
8
0
100
AcDbLine
10
1.2242968931879252
20
4.4448612283367996
30
0
11
1.4851577992573739
21
3.9159812503056903
31
0
0
ELLIPSE
5
125
100
AcDbEntity
8
0
100
AcDbEllipse
10
1.5120547614266961
20
3.9292621181281508
30
0
11
-0.019202042813654806
21
-0.023049545587333603
31
0.0
40
0.99941943360284269
41
5.8654104049263367
42
7.4362067317212581
0
LINE
5
126
100
AcDbEntity
8
0
100
AcDbLine
10
1.5253188752946343
20
3.9023699158553824
30
0
11
1.5867554696388739
21
3.77574322435109
31
0
0
ARC
5
127
100
AcDbEntity
8
0
100
AcDbCircle
10
1.338807370457715
20
3.655444047243539
30
0
40
0.27559055118110243
210
0
220
-0
230
1
100
AcDbArc
50
0
51
25.881681234084734
0
LINE
5
128
100
AcDbEntity
8
0
100
AcDbLine
10
1.6143979216388173
20
3.655444047243539
30
0
11
1.6143979216388173
21
3.3775533966537603
31
0
0
LINE
5
129
100
AcDbEntity
8
0
100
AcDbLine
10
1.6143979216388173
20
3.3775533966537603
30
0
11
1.5750000000000002
21
3.3381554750149434
31
0
0
LINE
5
130
100
AcDbEntity
8
0
100
AcDbLine
10
1.5750000000000002
20
3.3381554750149434
30
0
11
1.5750000000000002
21
0.019685039370079017
31
0
0
LINE
5
131
100
AcDbEntity
8
0
100
AcDbLine
10
1.5750000000000002
20
0.019685039370079017
30
0
11
1.5946850393700791
21
0
31
0
0
ENDSEC
0
SECTION
2
OBJECTS
0
DICTIONARY
5
C
100
AcDbDictionary
3
ACAD_GROUP
350
D
3
ACAD_MLINESTYLE
350
17
0
DICTIONARY
5
D
100
AcDbDictionary
0
DICTIONARY
5
1A
330
C
100
AcDbDictionary
0
DICTIONARY
5
17
100
AcDbDictionary
0
ENDSEC
0
EOF
