0
SECTION
2
HEADER
9
$INSUNITS
70
1
9
$ACADVER
1
AC1014
9
$HANDSEED
5
FFFF
0
ENDSEC
0
SECTION
2
TABLES
0
TABLE
2
VPORT
5
8
100
AcDbSymbolTable
0
ENDTAB
0
TABLE
2
LTYPE
5
5
100
AcDbSymbolTable
0
LTYPE
5
14
100
AcDbSymbolTableRecord
100
AcDbLinetypeTableRecord
2
BYBLOCK
70
0
0
LTYPE
5
15
100
AcDbSymbolTableRecord
100
AcDbLinetypeTableRecord
2
BYLAYER
70
0
0
LTYPE
5
16
100
AcDbSymbolTableRecord
100
AcDbLinetypeTableRecord
2
DASHED
70
0
3
Dashed __ __ __ __ __ __ __ __ __ __ __ __ __ _
72
65
73
2
40
0.75
49
0.5
74
0
49
-0.25
74
0
0
ENDTAB
0
TABLE
2
LAYER
5
2
100
AcDbSymbolTable
70
2
0
LAYER
5
50
100
AcDbSymbolTableRecord
100
AcDbLayerTableRecord
2
0
70
0
62
7
6
CONTINUOUS
0
ENDTAB
0
TABLE
2
STYLE
5
3
100
AcDbSymbolTable
70
1
0
STYLE
5
11
100
AcDbSymbolTableRecord
100
AcDbTextStyleTableRecord
2
STANDARD
70
0
0
ENDTAB
0
TABLE
2
VIEW
5
6
100
AcDbSymbolTable
70
0
0
ENDTAB
0
TABLE
2
UCS
5
7
100
AcDbSymbolTable
70
0
0
ENDTAB
0
TABLE
2
APPID
5
9
100
AcDbSymbolTable
70
2
0
APPID
5
12
100
AcDbSymbolTableRecord
100
AcDbRegAppTableRecord
2
ACAD
70
0
0
ENDTAB
0
TABLE
2
DIMSTYLE
5
A
100
AcDbSymbolTable
70
1
0
ENDTAB
0
TABLE
2
BLOCK_RECORD
5
1
100
AcDbSymbolTable
70
1
0
BLOCK_RECORD
5
1F
100
AcDbSymbolTableRecord
100
AcDbBlockTableRecord
2
*MODEL_SPACE
0
BLOCK_RECORD
5
1B
100
AcDbSymbolTableRecord
100
AcDbBlockTableRecord
2
*PAPER_SPACE
0
ENDTAB
0
ENDSEC
0
SECTION
2
BLOCKS
0
BLOCK
5
20
100
AcDbEntity
100
AcDbBlockBegin
2
*MODEL_SPACE
0
ENDBLK
5
21
100
AcDbEntity
100
AcDbBlockEnd
0
BLOCK
5
1C
100
AcDbEntity
100
AcDbBlockBegin
2
*PAPER_SPACE
0
ENDBLK
5
1D
100
AcDbEntity
100
AcDbBlockEnd
0
ENDSEC
0
SECTION
2
ENTITIES
0
LINE
5
100
100
AcDbEntity
8
0
100
AcDbLine
10
3.7439105474212249
20
4.9983640979383006
30
0
11
2.4560894525787758
21
4.9983640979383006
31
0
0
ELLIPSE
5
101
100
AcDbEntity
8
0
100
AcDbEllipse
10
2.4463257548673196
20
4.9699997134621272
30
0
11
0.019202042813655795
21
0.023049545587332767
31
0.0
40
0.99941943360284247
41
0.36325993801425899
42
1.1147785019007825
0
ELLIPSE
5
102
100
AcDbEntity
8
0
100
AcDbEllipse
10
2.5554982948181721
20
4.9678375580591974
30
0
11
-0.080008511723552764
21
-0.096039773280563415
31
0.0
40
0.99941943360284247
41
5.1680352755618904
42
5.3330849830679981
0
ELLIPSE
5
103
100
AcDbEntity
8
0
100
AcDbEllipse
10
1.8078169555422232
20
5.0229785912123708
30
0
11
0.40004255861785831
21
0.48019886640274079
31
0.0
40
0.99941943360284291
41
4.8848792011521978
42
5.3330849830681917
0
ELLIPSE
5
104
100
AcDbEntity
8
0
100
AcDbEllipse
10
2.4554205122012012
20
4.6456363327500361
30
0
11
-0.080008511723571207
21
-0.096039773280548038
31
0.0
40
0.99941943360284269
41
4.8513870399451946
42
4.8792993775496623
0
ELLIPSE
5
105
100
AcDbEntity
8
0
100
AcDbEllipse
10
1.8077658944375496
20
5.0230069340292092
30
0
11
0.40004255861783777
21
0.48019886640275827
31
0.0
40
0.99941943360284202
41
4.4337978008535597
42
4.8792993775496223
0
ELLIPSE
5
106
100
AcDbEntity
8
0
100
AcDbEllipse
10
2.224219069320966
20
4.3998917809401812
30
0
11
-0.080008511723559841
21
-0.096039773280557503
31
0.0
40
0.9994194336028428
41
4.3839863729480868
42
4.4255137720310138
0
ELLIPSE
5
107
100
AcDbEntity
8
0
100
AcDbEllipse
10
1.8076841795886498
20
5.0231076471431209
30
0
11
0.40004255861780125
21
0.48019886640278858
31
0.0
40
0.9994194336028428
41
3.9106416426926915
42
4.4255137720310183
0
ELLIPSE
5
108
100
AcDbEntity
8
0
100
AcDbEllipse
10
1.8632465008886832
20
4.2753797368022672
30
0
11
-0.080008511723540884
21
-0.096039773280574101
31
0.0
40
0.99941943360284269
41
3.9106416426924984
42
4.0756913501985785
0
ELLIPSE
5
109
100
AcDbEntity
8
0
100
AcDbEllipse
10
1.8610222144181714
20
4.3845624406583283
30
0
11
-0.019202042813659264
21
-0.023049545587329721
31
0.0
40
0.9994194336028428
41
4.9873554702704217
42
5.7388740341569751
0
LINE
5
110
100
AcDbEntity
8
0
100
AcDbLine
10
1.8326663773182221
20
4.3747815222470203
30
0
11
1.9402995457648811
21
4.062220848336314
31
0
0
LINE
5
111
100
AcDbEntity
8
0
100
AcDbLine
10
1.9402995457648811
20
4.062220848336314
30
0
11
2.1835192920925732
21
3.2238111941250023
31
0
0
LINE
5
112
100
AcDbEntity
8
0
100
AcDbLine
10
2.1835192920925732
20
3.2238111941250023
30
0
11
2.2338582677165357
21
3.1859999999999995
31
0
0
LINE
5
113
100
AcDbEntity
8
0
100
AcDbLine
10
2.2338582677165357
20
3.1859999999999995
30
0
11
2.4750000000000005
21
3.1859999999999995
31
0
0
LINE
5
114
100
AcDbEntity
8
0
100
AcDbLine
10
2.4750000000000005
20
3.1859999999999995
30
0
11
2.4750000000000005
21
0.039370078740157334
31
0
0
LINE
5
115
100
AcDbEntity
8
0
100
AcDbLine
10
2.4750000000000005
20
0.039370078740157334
30
0
11
2.5143700787401579
21
0
31
0
0
LINE
5
116
100
AcDbEntity
8
0
100
AcDbLine
10
2.5143700787401579
20
0
30
0
11
3.6856299212598427
21
0
31
0
0
LINE
5
117
100
AcDbEntity
8
0
100
AcDbLine
10
3.6856299212598427
20
0
30
0
11
3.7250000000000001
21
0.039370078740157334
31
0
0
LINE
5
118
100
AcDbEntity
8
0
100
AcDbLine
10
3.7250000000000001
20
0.039370078740157334
30
0
11
3.7250000000000001
21
3.1859999999999995
31
0
0
LINE
5
119
100
AcDbEntity
8
0
100
AcDbLine
10
3.7250000000000001
20
3.1859999999999995
30
0
11
3.9661417322834649
21
3.1859999999999995
31
0
0
LINE
5
120
100
AcDbEntity
8
0
100
AcDbLine
10
3.9661417322834649
20
3.1859999999999995
30
0
11
4.0164807079074274
21
3.2238111941250023
31
0
0
LINE
5
121
100
AcDbEntity
8
0
100
AcDbLine
10
4.0164807079074274
20
3.2238111941250023
30
0
11
4.2597004542351193
21
4.062220848336314
31
0
0
LINE
5
122
100
AcDbEntity
8
0
100
AcDbLine
10
4.2597004542351193
20
4.062220848336314
30
0
11
4.3673336226817785
21
4.3747815222470203
31
0
0
ELLIPSE
5
123
100
AcDbEntity
8
0
100
AcDbEllipse
10
4.3389777855818288
20
4.3845624406583283
30
0
11
0.019202042813659264
21
-0.023049545587329721
31
0.0
40
0.9994194336028428
41
0.5443112730226376
42
1.2958298369091983
0
ELLIPSE
5
124
100
AcDbEntity
8
0
100
AcDbEllipse
10
4.3367534991113175
20
4.2753797368022672
30
0
11
0.080008511723540884
21
-0.096039773280574101
31
0.0
40
0.99941943360284269
41
2.2074939569810121
42
2.3725436644870825
0
ELLIPSE
5
125
100
AcDbEntity
8
0
100
AcDbEllipse
10
4.3923158204113513
20
5.0231076471431209
30
0
11
-0.40004255861780125
21
0.48019886640278858
31
0.0
40
0.9994194336028428
41
1.8576715351485684
42
2.3725436644868934
0
ELLIPSE
5
126
100
AcDbEntity
8
0
100
AcDbEllipse
10
3.9757809306790346
20
4.3998917809401812
30
0
11
0.080008511723559841
21
-0.096039773280557503
31
0.0
40
0.9994194336028428
41
1.8576715351485589
42
1.8991989342315019
0
ELLIPSE
5
127
100
AcDbEntity
8
0
100
AcDbEllipse
10
4.3922341055624505
20
5.0230069340292092
30
0
11
-0.40004255861783777
21
0.48019886640275827
31
0.0
40
0.99941943360284202
41
1.4038859296299646
42
1.8493875063260272
0
ELLIPSE
5
128
100
AcDbEntity
8
0
100
AcDbEllipse
10
3.7445794877987995
20
4.6456363327500361
30
0
11
0.080008511723571207
21
-0.096039773280548038
31
0.0
40
0.99941943360284269
41
1.403885929629928
42
1.431798267234397
0
ELLIPSE
5
129
100
AcDbEntity
8
0
100
AcDbEllipse
10
4.3921830444577772
20
5.0229785912123708
30
0
11
-0.40004255861785831
21
0.48019886640274079
31
0.0
40
0.99941943360284291
41
0.95010032411139522
42
1.3983061060273898
0
ELLIPSE
5
130
100
AcDbEntity
8
0
100
AcDbEllipse
10
3.6445017051818285
20
4.9678375580591974
30
0
11
0.080008511723552764
21
-0.096039773280563415
31
0.0
40
0.99941943360284247
41
0.9501003241115894
42
1.1151500316176861
0
ELLIPSE
5
131
100
AcDbEntity
8
0
100
AcDbEllipse
10
3.7536742451326806
20
4.9699997134621272
30
0
11
-0.019202042813655795
21
0.023049545587332767
31
0.0
40
0.99941943360284247
41
5.1684068052787593
42
5.9199253691652833
0
ENDSEC
0
SECTION
2
OBJECTS
0
DICTIONARY
5
C
100
AcDbDictionary
3
ACAD_GROUP
350
D
3
ACAD_MLINESTYLE
350
17
0
DICTIONARY
5
D
100
AcDbDictionary
0
DICTIONARY
5
1A
330
C
100
AcDbDictionary
0
DICTIONARY
5
17
100
AcDbDictionary
0
ENDSEC
0
EOF
