0
SECTION
2
HEADER
9
$INSUNITS
70
1
9
$ACADVER
1
AC1014
9
$HANDSEED
5
FFFF
0
ENDSEC
0
SECTION
2
TABLES
0
TABLE
2
VPORT
5
8
100
AcDbSymbolTable
0
ENDTAB
0
TABLE
2
LTYPE
5
5
100
AcDbSymbolTable
0
LTYPE
5
14
100
AcDbSymbolTableRecord
100
AcDbLinetypeTableRecord
2
BYBLOCK
70
0
0
LTYPE
5
15
100
AcDbSymbolTableRecord
100
AcDbLinetypeTableRecord
2
BYLAYER
70
0
0
LTYPE
5
16
100
AcDbSymbolTableRecord
100
AcDbLinetypeTableRecord
2
DASHED
70
0
3
Dashed __ __ __ __ __ __ __ __ __ __ __ __ __ _
72
65
73
2
40
0.75
49
0.5
74
0
49
-0.25
74
0
0
ENDTAB
0
TABLE
2
LAYER
5
2
100
AcDbSymbolTable
70
2
0
LAYER
5
50
100
AcDbSymbolTableRecord
100
AcDbLayerTableRecord
2
0
70
0
62
7
6
CONTINUOUS
0
ENDTAB
0
TABLE
2
STYLE
5
3
100
AcDbSymbolTable
70
1
0
STYLE
5
11
100
AcDbSymbolTableRecord
100
AcDbTextStyleTableRecord
2
STANDARD
70
0
0
ENDTAB
0
TABLE
2
VIEW
5
6
100
AcDbSymbolTable
70
0
0
ENDTAB
0
TABLE
2
UCS
5
7
100
AcDbSymbolTable
70
0
0
ENDTAB
0
TABLE
2
APPID
5
9
100
AcDbSymbolTable
70
2
0
APPID
5
12
100
AcDbSymbolTableRecord
100
AcDbRegAppTableRecord
2
ACAD
70
0
0
ENDTAB
0
TABLE
2
DIMSTYLE
5
A
100
AcDbSymbolTable
70
1
0
ENDTAB
0
TABLE
2
BLOCK_RECORD
5
1
100
AcDbSymbolTable
70
1
0
BLOCK_RECORD
5
1F
100
AcDbSymbolTableRecord
100
AcDbBlockTableRecord
2
*MODEL_SPACE
0
BLOCK_RECORD
5
1B
100
AcDbSymbolTableRecord
100
AcDbBlockTableRecord
2
*PAPER_SPACE
0
ENDTAB
0
ENDSEC
0
SECTION
2
BLOCKS
0
BLOCK
5
20
100
AcDbEntity
100
AcDbBlockBegin
2
*MODEL_SPACE
0
ENDBLK
5
21
100
AcDbEntity
100
AcDbBlockEnd
0
BLOCK
5
1C
100
AcDbEntity
100
AcDbBlockBegin
2
*PAPER_SPACE
0
ENDBLK
5
1D
100
AcDbEntity
100
AcDbBlockEnd
0
ENDSEC
0
SECTION
2
ENTITIES
0
LINE
5
100
100
AcDbEntity
8
0
100
AcDbLine
10
2.0606299212598431
20
0.01968503937007874
30
0
11
2.1000000000000005
21
0.059055118110236227
31
0
0
LINE
5
101
100
AcDbEntity
8
0
100
AcDbLine
10
2.1000000000000005
20
0.059055118110236227
30
0
11
2.1000000000000005
21
3.3139962472320121
31
0
0
LINE
5
102
100
AcDbEntity
8
0
100
AcDbLine
10
2.1000000000000005
20
3.3139962472320121
30
0
11
2.0718309926044829
21
3.3421652546275293
31
0
0
LINE
5
103
100
AcDbEntity
8
0
100
AcDbLine
10
2.0718309926044829
20
3.3421652546275293
30
0
11
2.0718309926044829
21
3.7029173535917375
31
0
0
LINE
5
104
100
AcDbEntity
8
0
100
AcDbLine
10
2.0718309926044829
20
3.7029173535917375
30
0
11
2.0780945248092917
21
3.6998246198179334
31
0
0
ELLIPSE
5
105
100
AcDbEntity
8
0
100
AcDbEllipse
10
2.0913586386772303
20
3.7267168220907014
30
0
11
0.019202042813653796
21
-0.023049545587334425
31
0.0
40
0.99941943360284236
41
5.1301638826379703
42
6.7009602094328686
0
LINE
5
106
100
AcDbEntity
8
0
100
AcDbLine
10
2.1182556008465525
20
3.7134359542682405
30
0
11
2.323849365799592
21
4.1302650894961497
31
0
0
ELLIPSE
5
107
100
AcDbEntity
8
0
100
AcDbEllipse
10
2.2969524036302706
20
4.1435459573186106
30
0
11
0.019202042813658754
21
-0.023049545587330151
31
0.0
40
0.99941943360284269
41
0.41777490225303743
42
0.89400018923109714
0
ELLIPSE
5
108
100
AcDbEntity
8
0
100
AcDbEllipse
10
2.2108916079065657
20
3.7876422693468745
30
0
11
0.24002553517063291
21
-0.2881193198417128
31
0.0
40
0.99941943360284247
41
2.1319887802008841
42
2.3594536950971001
0
ELLIPSE
5
109
100
AcDbEntity
8
0
100
AcDbEllipse
10
2.268046182989873
20
4.4409578259626361
30
0
11
0.17985913435459827
21
-0.21589741033466511
31
0.0
40
0.99941943360284291
41
4.7592814165889781
42
5.5010463486865699
0
ELLIPSE
5
110
100
AcDbEntity
8
0
100
AcDbEllipse
10
1.784557986165725
20
3.9981523054976953
30
0
11
0.24002553517071054
21
-0.28811931984164951
31
0.0
40
0.99941943360284269
41
1.6176887629992442
42
1.6294959214545046
0
ELLIPSE
5
111
100
AcDbEntity
8
0
100
AcDbEllipse
10
2.2680024103270218
20
4.4409152796913149
30
0
11
0.1798591343545638
21
-0.21589741033469373
31
0.0
40
0.99941943360284224
41
4.1047829470912651
42
4.7435177981431211
0
ELLIPSE
5
112
100
AcDbEntity
8
0
100
AcDbEllipse
10
1.6147226277827278
20
4.384127899769334
30
0
11
0.24002553517068134
21
-0.28811931984167383
31
0.0
40
0.9994194336028428
41
0.96319029350147267
42
1.1906552083976856
0
ELLIPSE
5
113
100
AcDbEntity
8
0
100
AcDbEllipse
10
1.9706381994867554
20
4.4699943950961245
30
0
11
-0.019202042813655232
21
0.023049545587333239
31
0.0
40
0.99941943360284302
41
5.5702364529568325
42
6.0464617399349398
0
LINE
5
114
100
AcDbEntity
8
0
100
AcDbLine
10
1.9573740856188173
20
4.4969017514298022
30
0
11
1.2426259143811831
21
4.4969017514298022
31
0
0
ELLIPSE
5
115
100
AcDbEntity
8
0
100
AcDbEllipse
10
1.2293618005132452
20
4.4699943950961245
30
0
11
0.019202042813655232
21
0.023049545587333239
31
0.0
40
0.99941943360284302
41
0.23672356724465984
42
0.7129488542227429
0
ELLIPSE
5
116
100
AcDbEntity
8
0
100
AcDbEllipse
10
1.5852773722172726
20
4.384127899769334
30
0
11
-0.24002553517068134
21
-0.28811931984167383
31
0.0
40
0.9994194336028428
41
5.0925300987819018
42
5.3199950136781151
0
ELLIPSE
5
117
100
AcDbEntity
8
0
100
AcDbEllipse
10
0.93199758967297852
20
4.4409152796913149
30
0
11
-0.1798591343545638
21
-0.21589741033469373
31
0.0
40
0.99941943360284224
41
1.5396675090364633
42
2.1784023600883202
0
ELLIPSE
5
118
100
AcDbEntity
8
0
100
AcDbEllipse
10
1.4154420138342754
20
3.9981523054976953
30
0
11
-0.24002553517071054
21
-0.28811931984164951
31
0.0
40
0.99941943360284291
41
4.6536893857250838
42
4.6654965441803409
0
ELLIPSE
5
119
100
AcDbEntity
8
0
100
AcDbEllipse
10
0.93195381701012736
20
4.4409578259626361
30
0
11
-0.17985913435459827
21
-0.21589741033466511
31
0.0
40
0.99941943360284291
41
0.78213895849301895
42
1.5239038905906088
0
ELLIPSE
5
120
100
AcDbEntity
8
0
100
AcDbEllipse
10
0.98910839209343471
20
3.7876422693468745
30
0
11
-0.24002553517063291
21
-0.2881193198417128
31
0.0
40
0.99941943360284247
41
3.9237316120824861
42
4.1511965269787012
0
ELLIPSE
5
121
100
AcDbEntity
8
0
100
AcDbEllipse
10
0.90304759636972998
20
4.1435459573186106
30
0
11
-0.019202042813658754
21
-0.023049545587330151
31
0.0
40
0.99941943360284269
41
5.3891851179484869
42
5.865410404926533
0
LINE
5
122
100
AcDbEntity
8
0
100
AcDbLine
10
0.87615063420040806
20
4.1302650894961497
30
0
11
1.0817443991534481
21
3.7134359542682405
31
0
0
ELLIPSE
5
123
100
AcDbEntity
8
0
100
AcDbEllipse
10
1.1086413613227704
20
3.7267168220907014
30
0
11
-0.019202042813653796
21
-0.023049545587334425
31
0.0
40
0.99941943360284236
41
5.8654104049262852
42
7.4362067317212075
0
LINE
5
124
100
AcDbEntity
8
0
100
AcDbLine
10
1.121905475190708
20
3.6998246198179325
30
0
11
1.1281690073955177
21
3.7029173535917375
31
0
0
LINE
5
125
100
AcDbEntity
8
0
100
AcDbLine
10
1.1281690073955177
20
3.7029173535917375
30
0
11
1.1281690073955177
21
3.3421652546275293
31
0
0
LINE
5
126
100
AcDbEntity
8
0
100
AcDbLine
10
1.1281690073955177
20
3.3421652546275293
30
0
11
1.1000000000000001
21
3.3139962472320121
31
0
0
LINE
5
127
100
AcDbEntity
8
0
100
AcDbLine
10
1.1000000000000001
20
3.3139962472320121
30
0
11
1.1000000000000001
21
0.059055118110236358
31
0
0
LINE
5
128
100
AcDbEntity
8
0
100
AcDbLine
10
1.1000000000000001
20
0.059055118110236358
30
0
11
1.1393700787401575
21
0.01968503937007874
31
0
0
LINE
5
129
100
AcDbEntity
8
0
100
AcDbLine
10
1.1393700787401575
20
0.01968503937007874
30
0
11
2.0606299212598431
21
0.01968503937007874
31
0
0
ENDSEC
0
SECTION
2
OBJECTS
0
DICTIONARY
5
C
100
AcDbDictionary
3
ACAD_GROUP
350
D
3
ACAD_MLINESTYLE
350
17
0
DICTIONARY
5
D
100
AcDbDictionary
0
DICTIONARY
5
1A
330
C
100
AcDbDictionary
0
DICTIONARY
5
17
100
AcDbDictionary
0
ENDSEC
0
EOF
