0
SECTION
2
HEADER
9
$INSUNITS
70
1
9
$ACADVER
1
AC1014
9
$HANDSEED
5
FFFF
0
ENDSEC
0
SECTION
2
TABLES
0
TABLE
2
VPORT
5
8
100
AcDbSymbolTable
0
ENDTAB
0
TABLE
2
LTYPE
5
5
100
AcDbSymbolTable
0
LTYPE
5
14
100
AcDbSymbolTableRecord
100
AcDbLinetypeTableRecord
2
BYBLOCK
70
0
0
LTYPE
5
15
100
AcDbSymbolTableRecord
100
AcDbLinetypeTableRecord
2
BYLAYER
70
0
0
LTYPE
5
16
100
AcDbSymbolTableRecord
100
AcDbLinetypeTableRecord
2
DASHED
70
0
3
Dashed __ __ __ __ __ __ __ __ __ __ __ __ __ _
72
65
73
2
40
0.75
49
0.5
74
0
49
-0.25
74
0
0
ENDTAB
0
TABLE
2
LAYER
5
2
100
AcDbSymbolTable
70
2
0
LAYER
5
50
100
AcDbSymbolTableRecord
100
AcDbLayerTableRecord
2
0
70
0
62
7
6
CONTINUOUS
0
ENDTAB
0
TABLE
2
STYLE
5
3
100
AcDbSymbolTable
70
1
0
STYLE
5
11
100
AcDbSymbolTableRecord
100
AcDbTextStyleTableRecord
2
STANDARD
70
0
0
ENDTAB
0
TABLE
2
VIEW
5
6
100
AcDbSymbolTable
70
0
0
ENDTAB
0
TABLE
2
UCS
5
7
100
AcDbSymbolTable
70
0
0
ENDTAB
0
TABLE
2
APPID
5
9
100
AcDbSymbolTable
70
2
0
APPID
5
12
100
AcDbSymbolTableRecord
100
AcDbRegAppTableRecord
2
ACAD
70
0
0
ENDTAB
0
TABLE
2
DIMSTYLE
5
A
100
AcDbSymbolTable
70
1
0
ENDTAB
0
TABLE
2
BLOCK_RECORD
5
1
100
AcDbSymbolTable
70
1
0
BLOCK_RECORD
5
1F
100
AcDbSymbolTableRecord
100
AcDbBlockTableRecord
2
*MODEL_SPACE
0
BLOCK_RECORD
5
1B
100
AcDbSymbolTableRecord
100
AcDbBlockTableRecord
2
*PAPER_SPACE
0
ENDTAB
0
ENDSEC
0
SECTION
2
BLOCKS
0
BLOCK
5
20
100
AcDbEntity
100
AcDbBlockBegin
2
*MODEL_SPACE
0
ENDBLK
5
21
100
AcDbEntity
100
AcDbBlockEnd
0
BLOCK
5
1C
100
AcDbEntity
100
AcDbBlockBegin
2
*PAPER_SPACE
0
ENDBLK
5
1D
100
AcDbEntity
100
AcDbBlockEnd
0
ENDSEC
0
SECTION
2
ENTITIES
0
LINE
5
100
100
AcDbEntity
8
0
100
AcDbLine
10
2.0946850393700789
20
0
30
0
11
3.3053149606299219
21
0
31
0
0
LINE
5
101
100
AcDbEntity
8
0
100
AcDbLine
10
3.3053149606299219
20
0
30
0
11
3.3250000000000006
21
0.01968503937007874
31
0
0
LINE
5
102
100
AcDbEntity
8
0
100
AcDbLine
10
3.3250000000000006
20
0.01968503937007874
30
0
11
3.3250000000000006
21
3.1999999999999997
31
0
0
LINE
5
103
100
AcDbEntity
8
0
100
AcDbLine
10
3.3250000000000006
20
3.1999999999999997
30
0
11
3.3888988387769925
21
3.1999999999999997
31
0
0
LINE
5
104
100
AcDbEntity
8
0
100
AcDbLine
10
3.3888988387769925
20
3.1999999999999997
30
0
11
3.4415739081110579
21
3.2370537491396245
31
0
0
LINE
5
105
100
AcDbEntity
8
0
100
AcDbLine
10
3.4415739081110579
20
3.2370537491396245
30
0
11
3.7103122937089323
21
3.9842850088700912
31
0
0
ELLIPSE
5
106
100
AcDbEntity
8
0
100
AcDbEllipse
10
3.7122789567435124
20
4.0142121851786658
30
0
11
0.019202042813656738
21
-0.023049545587331986
31
0.0
40
0.99941943360284269
41
5.5226878111494493
42
6.8144066108123464
0
LINE
5
107
100
AcDbEntity
8
0
100
AcDbLine
10
3.7405045616757824
20
4.0040609724138818
30
0
11
3.8975819905842148
21
4.4415139420488483
31
0
0
ELLIPSE
5
108
100
AcDbEntity
8
0
100
AcDbEllipse
10
3.8693563856519453
20
4.4516651548136323
30
0
11
0.019202042813656887
21
-0.023049545587331723
31
0.0
40
0.99941943360284247
41
0.53122130363278675
42
1.2202903038127586
0
ELLIPSE
5
109
100
AcDbEntity
8
0
100
AcDbEllipse
10
3.8304721343442534
20
4.2210534967301365
30
0
11
0.16001702344708196
21
-0.19207954656114681
31
0.0
40
0.9994194336028428
41
2.1748378623128812
42
2.3594536950971396
0
ELLIPSE
5
110
100
AcDbEntity
8
0
100
AcDbEllipse
10
3.8985174440089825
20
4.9988575359327418
30
0
11
0.33987615780164215
21
-0.4079769568958434
31
0.0
40
0.99941943360284291
41
4.9861742193485039
42
5.5010463486868293
0
ELLIPSE
5
111
100
AcDbEntity
8
0
100
AcDbEllipse
10
3.4563057598154026
20
4.3556207623878436
30
0
11
0.16001702344709093
21
-0.19207954656114001
31
0.0
40
0.99941943360284213
41
1.8445815657587576
42
1.8686045775623799
0
ELLIPSE
5
112
100
AcDbEntity
8
0
100
AcDbEllipse
10
3.8984502660233877
20
4.998775165735287
30
0
11
0.33987615780170199
21
-0.40797695689579389
31
0.0
40
0.99941943360284247
41
4.5454785832197864
42
4.9748811713376275
0
ELLIPSE
5
113
100
AcDbEntity
8
0
100
AcDbEllipse
10
3.2240259240588385
20
4.6058065796032439
30
0
11
0.16001702344713667
21
-0.19207954656110193
31
0.0
40
0.99941943360284302
41
1.403885929629956
42
1.4202244414863507
0
ELLIPSE
5
114
100
AcDbEntity
8
0
100
AcDbEllipse
10
3.8984076746830394
20
4.9987508420461912
30
0
11
0.33987615780183605
21
-0.40797695689568181
31
0.0
40
0.99941943360284313
41
4.1047829470908894
42
4.5377873206429706
0
ELLIPSE
5
115
100
AcDbEntity
8
0
100
AcDbEllipse
10
3.1206462262575929
20
4.9311426961329801
30
0
11
0.1600170234471382
21
-0.1920795465611006
31
0.0
40
0.9994194336028418
41
0.96319029350137964
42
1.1478061262856252
0
ELLIPSE
5
116
100
AcDbEntity
8
0
100
AcDbEllipse
10
3.3512559430928754
20
4.9698992859430451
30
0
11
-0.019202042813654778
21
0.023049545587333617
31
0.0
40
0.9994194336028428
41
5.2439463383753564
42
5.9330153385553048
0
LINE
5
117
100
AcDbEntity
8
0
100
AcDbLine
10
3.3411219154213643
20
4.9981336361596336
30
0
11
2.058878084578637
21
4.9981336361596336
31
0
0
ELLIPSE
5
118
100
AcDbEntity
8
0
100
AcDbEllipse
10
2.0487440569071249
20
4.9698992859430451
30
0
11
0.019202042813654778
21
0.023049545587333617
31
0.0
40
0.99941943360284302
41
0.3501699686242607
42
1.0392389688042465
0
ELLIPSE
5
119
100
AcDbEntity
8
0
100
AcDbEllipse
10
2.2793537737424079
20
4.9311426961329801
30
0
11
-0.1600170234471382
21
-0.1920795465611006
31
0.0
40
0.9994194336028418
41
5.1353791808939615
42
5.3199950136782066
0
ELLIPSE
5
120
100
AcDbEntity
8
0
100
AcDbEllipse
10
1.5015923253169619
20
4.9987508420461912
30
0
11
-0.33987615780183617
21
-0.40797695689568209
31
0.0
40
0.99941943360284324
41
1.7453979865366154
42
2.1784023600886968
0
ELLIPSE
5
121
100
AcDbEntity
8
0
100
AcDbEllipse
10
2.1759740759411623
20
4.6058065796032439
30
0
11
-0.16001702344713667
21
-0.19207954656110193
31
0.0
40
0.99941943360284302
41
4.862960865693231
42
4.8792993775496258
0
ELLIPSE
5
122
100
AcDbEntity
8
0
100
AcDbEllipse
10
1.5015497339766128
20
4.998775165735287
30
0
11
-0.33987615780170199
21
-0.40797695689579389
31
0.0
40
0.99941943360284258
41
1.3083041358419574
42
1.7377067239598005
0
ELLIPSE
5
123
100
AcDbEntity
8
0
100
AcDbEllipse
10
1.9436942401845982
20
4.3556207623878436
30
0
11
-0.16001702344709093
21
-0.19207954656114001
31
0.0
40
0.99941943360284213
41
4.4145807296172075
42
4.4386037414208257
0
ELLIPSE
5
124
100
AcDbEntity
8
0
100
AcDbEllipse
10
1.5014825559910185
20
4.9988575359327418
30
0
11
-0.33987615780164215
21
-0.4079769568958434
31
0.0
40
0.99941943360284313
41
0.7821389584927555
42
1.2970110878310845
0
ELLIPSE
5
125
100
AcDbEntity
8
0
100
AcDbEllipse
10
1.5695278656557474
20
4.2210534967301365
30
0
11
-0.16001702344708196
21
-0.19207954656114681
31
0.0
40
0.9994194336028428
41
3.9237316120824444
42
4.108347444866693
0
ELLIPSE
5
126
100
AcDbEntity
8
0
100
AcDbEllipse
10
1.5306436143480557
20
4.4516651548136323
30
0
11
-0.019202042813656887
21
-0.023049545587331723
31
0.0
40
0.99941943360284247
41
5.0628950033667959
42
5.7519640035468047
0
LINE
5
127
100
AcDbEntity
8
0
100
AcDbLine
10
1.5024180094157857
20
4.4415139420488483
30
0
11
1.6594954383242184
21
4.0040609724138818
31
0
0
ELLIPSE
5
128
100
AcDbEntity
8
0
100
AcDbEllipse
10
1.6877210432564886
20
4.0142121851786658
30
0
11
-0.019202042813656738
21
-0.023049545587331986
31
0.0
40
0.99941943360284269
41
5.7519640035468251
42
7.0436828032096903
0
LINE
5
129
100
AcDbEntity
8
0
100
AcDbLine
10
1.689687706291068
20
3.9842850088700912
30
0
11
1.9584260918889433
21
3.2370537491396245
31
0
0
LINE
5
130
100
AcDbEntity
8
0
100
AcDbLine
10
1.9584260918889433
20
3.2370537491396245
30
0
11
2.0111011612230083
21
3.1999999999999997
31
0
0
LINE
5
131
100
AcDbEntity
8
0
100
AcDbLine
10
2.0111011612230083
20
3.1999999999999997
30
0
11
2.0750000000000002
21
3.1999999999999997
31
0
0
LINE
5
132
100
AcDbEntity
8
0
100
AcDbLine
10
2.0750000000000002
20
3.1999999999999997
30
0
11
2.0750000000000002
21
0.019685039370079017
31
0
0
LINE
5
133
100
AcDbEntity
8
0
100
AcDbLine
10
2.0750000000000002
20
0.019685039370079017
30
0
11
2.0946850393700789
21
0
31
0
0
ENDSEC
0
SECTION
2
OBJECTS
0
DICTIONARY
5
C
100
AcDbDictionary
3
ACAD_GROUP
350
D
3
ACAD_MLINESTYLE
350
17
0
DICTIONARY
5
D
100
AcDbDictionary
0
DICTIONARY
5
1A
330
C
100
AcDbDictionary
0
DICTIONARY
5
17
100
AcDbDictionary
0
ENDSEC
0
EOF
